ISO-10303-21;
HEADER;
FILE_DESCRIPTION (( 'STEP AP203' ),
    '1' );
FILE_NAME ('KVPZ16.STEP',
    '2023-03-07T09:48:26',
    ( '' ),
    ( '' ),
    'SwSTEP 2.0',
    'SolidWorks 2022',
    '' );
FILE_SCHEMA (( 'CONFIG_CONTROL_DESIGN' ));
ENDSEC;

DATA;
#1 = CALENDAR_DATE ( 2023, 7, 3 ) ;
#2 = ORGANIZATION ( 'UNSPECIFIED', 'UNSPECIFIED', '' ) ;
#3 = FACE_BOUND ( 'NONE', #367, .T. ) ;
#4 = CARTESIAN_POINT ( 'NONE',  ( 0.2411153230991256446, 19.52083082742696263, 26.86290120819216654 ) ) ;
#5 = DIRECTION ( 'NONE',  ( -1.554780545042277317E-15, -1.000000000000000000, -1.015778176149630115E-15 ) ) ;
#6 = PERSON_AND_ORGANIZATION_ROLE ( 'creator' ) ;
#7 = ADVANCED_FACE ( 'NONE', ( #297, #3 ), #433, .F. ) ;
#8 = AXIS2_PLACEMENT_3D ( 'NONE', #90, #221, #421 ) ;
#9 = FACE_BOUND ( 'NONE', #199, .T. ) ;
#10 = FACE_OUTER_BOUND ( 'NONE', #330, .T. ) ;
#11 = PLANE ( 'NONE',  #99 ) ;
#12 = CIRCLE ( 'NONE', #360, 8.749999999999998224 ) ;
#13 = DIRECTION ( 'NONE',  ( 0.000000000000000000, 1.000000000000000000, 0.000000000000000000 ) ) ;
#14 = AXIS2_PLACEMENT_3D ( 'NONE', #104, #338, #72 ) ;
#15 = CYLINDRICAL_SURFACE ( 'NONE', #337, 9.494906591720738476 ) ;
#16 = PLANE ( 'NONE',  #247 ) ;
#17 = CIRCLE ( 'NONE', #371, 9.494906591720738476 ) ;
#18 = DIRECTION ( 'NONE',  ( -0.000000000000000000, -1.000000000000000000, -0.000000000000000000 ) ) ;
#19 = FACE_OUTER_BOUND ( 'NONE', #290, .T. ) ;
#20 = CARTESIAN_POINT ( 'NONE',  ( 0.2411153230991256446, 20.02083082742696263, 26.86290120819215588 ) ) ;
#21 = CIRCLE ( 'NONE', #176, 8.608578643762690774 ) ;
#22 = CARTESIAN_POINT ( 'NONE',  ( 0.2411153230991256446, 9.520830827426962628, 26.86290120819216654 ) ) ;
#23 = EDGE_CURVE ( 'NONE', #182, #182, #62, .T. ) ;
#24 = EDGE_LOOP ( 'NONE', ( #231 ) ) ;
#25 = PRODUCT ( 'KVPZ16', 'KVPZ16', '', ( #428 ) ) ;
#26 = DATE_AND_TIME ( #103, #270 ) ;
#27 = TOROIDAL_SURFACE ( 'NONE', #47, 7.750000000000000000, 0.2500000000000002220 ) ;
#28 = COORDINATED_UNIVERSAL_TIME_OFFSET ( 0, 0, .AHEAD. ) ;
#29 = AXIS2_PLACEMENT_3D ( 'NONE', #216, #179, #308 ) ;
#30 = EDGE_LOOP ( 'NONE', ( #32 ) ) ;
#31 = APPROVAL_DATE_TIME ( #26, #78 ) ;
#32 = ORIENTED_EDGE ( 'NONE', *, *, #192, .F. ) ;
#33 = VERTEX_POINT ( 'NONE', #323 ) ;
#34 = PRODUCT_DEFINITION ( 'UNKNOWN', '', #230, #224 ) ;
#35 = LOCAL_TIME ( 9, 48, 26.00000000000000000, #373 ) ;
#36 = AXIS2_PLACEMENT_3D ( 'NONE', #80, #13, #151 ) ;
#37 = ORIENTED_EDGE ( 'NONE', *, *, #132, .F. ) ;
#38 = PERSON_AND_ORGANIZATION ( #228, #2 ) ;
#39 = DIRECTION ( 'NONE',  ( 0.000000000000000000, 0.000000000000000000, -1.000000000000000000 ) ) ;
#40 = AXIS2_PLACEMENT_3D ( 'NONE', #133, #75, #137 ) ;
#41 = DIRECTION ( 'NONE',  ( 1.554780545042276726E-15, 1.000000000000000000, 1.015778176149629720E-15 ) ) ;
#42 = DIRECTION ( 'NONE',  ( 0.000000000000000000, -1.000000000000000000, -0.000000000000000000 ) ) ;
#43 = APPROVAL_ROLE ( '' ) ;
#44 = EDGE_LOOP ( 'NONE', ( #398 ) ) ;
#45 = CIRCLE ( 'NONE', #326, 9.000000000000001776 ) ;
#46 = FACE_OUTER_BOUND ( 'NONE', #269, .T. ) ;
#47 = AXIS2_PLACEMENT_3D ( 'NONE', #217, #51, #378 ) ;
#48 = FACE_BOUND ( 'NONE', #195, .T. ) ;
#49 = CARTESIAN_POINT ( 'NONE',  ( 0.2411153230991256446, 13.99591616043324649, 26.86290120819216654 ) ) ;
#50 = CYLINDRICAL_SURFACE ( 'NONE', #8, 15.00000000000000000 ) ;
#51 = DIRECTION ( 'NONE',  ( 0.000000000000000000, -1.000000000000000000, 0.000000000000000000 ) ) ;
#52 = EDGE_CURVE ( 'NONE', #351, #351, #97, .T. ) ;
#53 = CARTESIAN_POINT ( 'NONE',  ( 0.2411153230991256446, 9.520830827426962628, 26.86290120819216654 ) ) ;
#54 = VERTEX_POINT ( 'NONE', #157 ) ;
#55 = DIRECTION ( 'NONE',  ( -0.000000000000000000, -1.000000000000000000, -0.000000000000000000 ) ) ;
#56 = AXIS2_PLACEMENT_3D ( 'NONE', #218, #55, #379 ) ;
#57 = CYLINDRICAL_SURFACE ( 'NONE', #394, 8.749999999999998224 ) ;
#58 = EDGE_CURVE ( 'NONE', #280, #280, #146, .T. ) ;
#59 = CARTESIAN_POINT ( 'NONE',  ( 0.2411153230991256446, 9.520830827426962628, 18.26290120819216511 ) ) ;
#60 = ORIENTED_EDGE ( 'NONE', *, *, #376, .F. ) ;
#61 = PERSON_AND_ORGANIZATION_ROLE ( 'design_owner' ) ;
#62 = CIRCLE ( 'NONE', #40, 8.749999999999994671 ) ;
#63 = EDGE_LOOP ( 'NONE', ( #106 ) ) ;
#64 = EDGE_LOOP ( 'NONE', ( #125 ) ) ;
#65 = DATE_AND_TIME ( #232, #162 ) ;
#66 = AXIS2_PLACEMENT_3D ( 'NONE', #306, #138, #39 ) ;
#67 = ORIENTED_EDGE ( 'NONE', *, *, #132, .T. ) ;
#68 =( NAMED_UNIT ( * ) PLANE_ANGLE_UNIT ( ) SI_UNIT ( $, .RADIAN. ) );
#69 = CALENDAR_DATE ( 2023, 7, 3 ) ;
#70 = DIRECTION ( 'NONE',  ( 0.8371691043312222691, -1.857188155891542243E-15, 0.5469441386039886055 ) ) ;
#71 = APPROVAL_DATE_TIME ( #405, #431 ) ;
#72 = DIRECTION ( 'NONE',  ( 0.000000000000000000, 0.000000000000000000, -1.000000000000000000 ) ) ;
#73 = EDGE_LOOP ( 'NONE', ( #364 ) ) ;
#74 = LOCAL_TIME ( 9, 48, 26.00000000000000000, #271 ) ;
#75 = DIRECTION ( 'NONE',  ( -0.000000000000000000, -1.000000000000000000, -0.000000000000000000 ) ) ;
#76 = CC_DESIGN_PERSON_AND_ORGANIZATION_ASSIGNMENT ( #165, #300, ( #230 ) ) ;
#77 = DIRECTION ( 'NONE',  ( 0.000000000000000000, -1.000000000000000000, 0.000000000000000000 ) ) ;
#78 = APPROVAL ( #321, 'UNSPECIFIED' ) ;
#79 = AXIS2_PLACEMENT_3D ( 'NONE', #256, #113, #145 ) ;
#80 = CARTESIAN_POINT ( 'NONE',  ( 0.2411153230991256446, 20.69943791261601262, 26.86290120819216654 ) ) ;
#81 = VERTEX_POINT ( 'NONE', #118 ) ;
#82 = CC_DESIGN_APPROVAL ( #78, ( #34 ) ) ;
#83 = FACE_BOUND ( 'NONE', #198, .T. ) ;
#84 = DIRECTION ( 'NONE',  ( -0.8371691043312222691, 1.982541115402065702E-15, -0.5469441386039887165 ) ) ;
#85 = ADVANCED_FACE ( 'NONE', ( #205 ), #336, .T. ) ;
#86 = FACE_OUTER_BOUND ( 'NONE', #294, .T. ) ;
#87 = VERTEX_POINT ( 'NONE', #347 ) ;
#88 = DIRECTION ( 'NONE',  ( 0.000000000000000000, 1.000000000000000000, 0.000000000000000000 ) ) ;
#89 = VERTEX_POINT ( 'NONE', #219 ) ;
#90 = CARTESIAN_POINT ( 'NONE',  ( 0.2411153230991256446, 9.520830827426962628, 26.86290120819216654 ) ) ;
#91 = EDGE_CURVE ( 'NONE', #418, #418, #128, .T. ) ;
#92 = AXIS2_PLACEMENT_3D ( 'NONE', #349, #381, #150 ) ;
#93 = DIRECTION ( 'NONE',  ( -0.000000000000000000, -1.000000000000000000, -0.000000000000000000 ) ) ;
#94 = EDGE_LOOP ( 'NONE', ( #129 ) ) ;
#95 = CARTESIAN_POINT ( 'NONE',  ( 0.2411153230991256446, 20.91063096490580264, 35.86290120819217009 ) ) ;
#96 = APPLICATION_CONTEXT ( 'configuration controlled 3d designs of mechanical parts and assemblies' ) ;
#97 = CIRCLE ( 'NONE', #335, 8.599999999999999645 ) ;
#98 = CARTESIAN_POINT ( 'NONE',  ( 0.2411153230991256446, 9.520830827426962628, 11.86290120819216654 ) ) ;
#99 = AXIS2_PLACEMENT_3D ( 'NONE', #20, #152, #285 ) ;
#100 = AXIS2_PLACEMENT_3D ( 'NONE', #314, #211, #183 ) ;
#101 = ORIENTED_EDGE ( 'NONE', *, *, #23, .F. ) ;
#102 = VERTEX_POINT ( 'NONE', #264 ) ;
#103 = CALENDAR_DATE ( 2023, 7, 3 ) ;
#104 = CARTESIAN_POINT ( 'NONE',  ( 0.2411153230991256446, 18.02083082742696263, 26.86290120819216654 ) ) ;
#105 = EDGE_CURVE ( 'NONE', #89, #89, #184, .T. ) ;
#106 = ORIENTED_EDGE ( 'NONE', *, *, #105, .T. ) ;
#107 = EDGE_LOOP ( 'NONE', ( #101 ) ) ;
#108 = DIRECTION ( 'NONE',  ( -0.000000000000000000, -1.000000000000000000, -0.000000000000000000 ) ) ;
#109 = CC_DESIGN_PERSON_AND_ORGANIZATION_ASSIGNMENT ( #399, #61, ( #25 ) ) ;
#110 = DIRECTION ( 'NONE',  ( -0.8371691043312222691, 0.000000000000000000, -0.5469441386039887165 ) ) ;
#111 = FACE_OUTER_BOUND ( 'NONE', #266, .T. ) ;
#112 = CARTESIAN_POINT ( 'NONE',  ( 0.2411153230991256446, 20.02083082742696263, 26.86290120819215588 ) ) ;
#113 = DIRECTION ( 'NONE',  ( -0.000000000000000000, -1.000000000000000000, -0.000000000000000000 ) ) ;
#114 = EDGE_CURVE ( 'NONE', #81, #81, #400, .T. ) ;
#115 = FACE_OUTER_BOUND ( 'NONE', #357, .T. ) ;
#116 =( GEOMETRIC_REPRESENTATION_CONTEXT ( 3 ) GLOBAL_UNCERTAINTY_ASSIGNED_CONTEXT ( ( #123 ) ) GLOBAL_UNIT_ASSIGNED_CONTEXT ( ( #127, #68, #396 ) ) REPRESENTATION_CONTEXT ( 'NONE', 'WORKASPACE' ) );
#117 = DIRECTION ( 'NONE',  ( 0.000000000000000000, 0.000000000000000000, -1.000000000000000000 ) ) ;
#118 = CARTESIAN_POINT ( 'NONE',  ( 0.2411153230991256446, 27.52083082742696263, 16.86290120819216298 ) ) ;
#119 = CARTESIAN_POINT ( 'NONE',  ( 0.2411153230991256446, 9.520830827426962628, 26.86290120819216654 ) ) ;
#120 = FACE_OUTER_BOUND ( 'NONE', #435, .T. ) ;
#121 = FACE_BOUND ( 'NONE', #361, .T. ) ;
#122 = DIRECTION ( 'NONE',  ( 0.000000000000000000, 1.000000000000000000, 0.000000000000000000 ) ) ;
#123 = UNCERTAINTY_MEASURE_WITH_UNIT (LENGTH_MEASURE( 1.000000000000000082E-05 ), #127, 'distance_accuracy_value', 'NONE');
#124 = CARTESIAN_POINT ( 'NONE',  ( 0.2411153230991256446, 27.02083082742696263, 14.36290120819216654 ) ) ;
#125 = ORIENTED_EDGE ( 'NONE', *, *, #370, .T. ) ;
#126 = APPLICATION_PROTOCOL_DEFINITION ( 'international standard', 'config_control_design', 1994, #96 ) ;
#127 =( LENGTH_UNIT ( ) NAMED_UNIT ( * ) SI_UNIT ( .MILLI., .METRE. ) );
#128 = CIRCLE ( 'NONE', #369, 8.599999999999999645 ) ;
#129 = ORIENTED_EDGE ( 'NONE', *, *, #142, .F. ) ;
#130 = AXIS2_PLACEMENT_3D ( 'NONE', #342, #185, #188 ) ;
#131 = PERSON_AND_ORGANIZATION ( #228, #2 ) ;
#132 = EDGE_CURVE ( 'NONE', #384, #384, #345, .T. ) ;
#133 = CARTESIAN_POINT ( 'NONE',  ( 0.2411153230991256446, 20.77863530722468255, 26.86290120819216654 ) ) ;
#134 = ORIENTED_EDGE ( 'NONE', *, *, #23, .T. ) ;
#135 = PERSON_AND_ORGANIZATION ( #228, #2 ) ;
#136 = APPROVAL_PERSON_ORGANIZATION ( #131, #78, #423 ) ;
#137 = DIRECTION ( 'NONE',  ( 0.000000000000000000, 0.000000000000000000, 1.000000000000000000 ) ) ;
#138 = DIRECTION ( 'NONE',  ( -0.000000000000000000, -1.000000000000000000, -0.000000000000000000 ) ) ;
#139 = DIRECTION ( 'NONE',  ( -0.8371691043312222691, 1.982541115402065702E-15, -0.5469441386039887165 ) ) ;
#140 = DATE_TIME_ROLE ( 'classification_date' ) ;
#141 = DIRECTION ( 'NONE',  ( -0.000000000000000000, -1.000000000000000000, -0.000000000000000000 ) ) ;
#142 = EDGE_CURVE ( 'NONE', #87, #87, #12, .T. ) ;
#143 = DIRECTION ( 'NONE',  ( -0.000000000000000000, -1.000000000000000000, -0.000000000000000000 ) ) ;
#144 = FACE_OUTER_BOUND ( 'NONE', #327, .T. ) ;
#145 = DIRECTION ( 'NONE',  ( 0.000000000000000000, 0.000000000000000000, -1.000000000000000000 ) ) ;
#146 = CIRCLE ( 'NONE', #14, 9.494906591720738476 ) ;
#147 = FACE_OUTER_BOUND ( 'NONE', #44, .T. ) ;
#148 = AXIS2_PLACEMENT_3D ( 'NONE', #119, #276, #411 ) ;
#149 = CARTESIAN_POINT ( 'NONE',  ( 0.2411153230991256446, 19.52083082742696263, 19.10688906017519528 ) ) ;
#150 = DIRECTION ( 'NONE',  ( 0.000000000000000000, -0.000000000000000000, 1.000000000000000000 ) ) ;
#151 = DIRECTION ( 'NONE',  ( 0.000000000000000000, 0.000000000000000000, 1.000000000000000000 ) ) ;
#152 = DIRECTION ( 'NONE',  ( -1.554780545042276726E-15, -1.000000000000000000, -1.015778176149629720E-15 ) ) ;
#153 = ORIENTED_EDGE ( 'NONE', *, *, #204, .F. ) ;
#154 = FACE_OUTER_BOUND ( 'NONE', #404, .T. ) ;
#155 = PRODUCT_DEFINITION_SHAPE ( 'NONE', 'NONE',  #34 ) ;
#156 = EDGE_LOOP ( 'NONE', ( #202 ) ) ;
#157 = CARTESIAN_POINT ( 'NONE',  ( -6.965720749664572331, 21.02083082742697329, 22.15448957727467771 ) ) ;
#158 = ADVANCED_FACE ( 'NONE', ( #275, #409 ), #346, .F. ) ;
#159 = DATE_AND_TIME ( #69, #322 ) ;
#160 = VERTEX_POINT ( 'NONE', #391 ) ;
#161 = EDGE_LOOP ( 'NONE', ( #260 ) ) ;
#162 = LOCAL_TIME ( 9, 48, 26.00000000000000000, #393 ) ;
#163 = CARTESIAN_POINT ( 'NONE',  ( 0.000000000000000000, 0.000000000000000000, 0.000000000000000000 ) ) ;
#164 = ORIENTED_EDGE ( 'NONE', *, *, #187, .F. ) ;
#165 = PERSON_AND_ORGANIZATION ( #228, #2 ) ;
#166 = CC_DESIGN_DATE_AND_TIME_ASSIGNMENT ( #402, #140, ( #281 ) ) ;
#167 = ADVANCED_BREP_SHAPE_REPRESENTATION ( 'KVPZ16', ( #273, #200 ), #116 ) ;
#168 = ORIENTED_EDGE ( 'NONE', *, *, #91, .T. ) ;
#169 = DIRECTION ( 'NONE',  ( -0.000000000000000000, -1.000000000000000000, -0.000000000000000000 ) ) ;
#170 = CIRCLE ( 'NONE', #56, 12.50000000000000000 ) ;
#171 = CONICAL_SURFACE ( 'NONE', #222, 9.494906591720738476, 1.308996938995753423 ) ;
#172 = CARTESIAN_POINT ( 'NONE',  ( -6.965720749664572331, 21.02083082742698039, 22.15448957727467771 ) ) ;
#173 = EDGE_CURVE ( 'NONE', #54, #54, #21, .T. ) ;
#174 = PERSON_AND_ORGANIZATION ( #228, #2 ) ;
#175 = DIRECTION ( 'NONE',  ( -0.000000000000000000, -1.000000000000000000, -0.000000000000000000 ) ) ;
#176 = AXIS2_PLACEMENT_3D ( 'NONE', #248, #340, #416 ) ;
#177 = FACE_OUTER_BOUND ( 'NONE', #73, .T. ) ;
#178 = ADVANCED_FACE ( 'NONE', ( #374, #111 ), #375, .T. ) ;
#179 = DIRECTION ( 'NONE',  ( -0.000000000000000000, -1.000000000000000000, -0.000000000000000000 ) ) ;
#180 = FACE_OUTER_BOUND ( 'NONE', #291, .T. ) ;
#181 = DIRECTION ( 'NONE',  ( -0.8371691043312222691, 1.982541115402065702E-15, -0.5469441386039887165 ) ) ;
#182 = VERTEX_POINT ( 'NONE', #223 ) ;
#183 = DIRECTION ( 'NONE',  ( -0.8371691043312221581, 0.000000000000000000, -0.5469441386039887165 ) ) ;
#184 = CIRCLE ( 'NONE', #66, 12.50000000000000000 ) ;
#185 = DIRECTION ( 'NONE',  ( 0.000000000000000000, 1.000000000000000000, 0.000000000000000000 ) ) ;
#186 = FACE_OUTER_BOUND ( 'NONE', #94, .T. ) ;
#187 = EDGE_CURVE ( 'NONE', #160, #160, #45, .T. ) ;
#188 = DIRECTION ( 'NONE',  ( 0.000000000000000000, -0.000000000000000000, 1.000000000000000000 ) ) ;
#189 = DIRECTION ( 'NONE',  ( 0.000000000000000000, 0.000000000000000000, -1.000000000000000000 ) ) ;
#190 = ORIENTED_EDGE ( 'NONE', *, *, #392, .F. ) ;
#191 = VERTEX_POINT ( 'NONE', #430 ) ;
#192 = EDGE_CURVE ( 'NONE', #191, #191, #406, .T. ) ;
#193 = ADVANCED_FACE ( 'NONE', ( #311, #348 ), #382, .F. ) ;
#194 = CC_DESIGN_SECURITY_CLASSIFICATION ( #281, ( #230 ) ) ;
#195 = EDGE_LOOP ( 'NONE', ( #225 ) ) ;
#196 = EDGE_LOOP ( 'NONE', ( #320 ) ) ;
#197 = APPROVAL_DATE_TIME ( #65, #413 ) ;
#198 = EDGE_LOOP ( 'NONE', ( #403 ) ) ;
#199 = EDGE_LOOP ( 'NONE', ( #153 ) ) ;
#200 = AXIS2_PLACEMENT_3D ( 'NONE', #163, #296, #427 ) ;
#201 = DATE_TIME_ROLE ( 'creation_date' ) ;
#202 = ORIENTED_EDGE ( 'NONE', *, *, #204, .T. ) ;
#203 = ORIENTED_EDGE ( 'NONE', *, *, #105, .F. ) ;
#204 = EDGE_CURVE ( 'NONE', #261, #261, #253, .T. ) ;
#205 = FACE_OUTER_BOUND ( 'NONE', #299, .T. ) ;
#206 = AXIS2_PLACEMENT_3D ( 'NONE', #112, #215, #344 ) ;
#207 = ORIENTED_EDGE ( 'NONE', *, *, #142, .T. ) ;
#208 = CARTESIAN_POINT ( 'NONE',  ( 0.2411153230991256446, 27.52083082742696263, 26.86290120819215588 ) ) ;
#209 = AXIS2_PLACEMENT_3D ( 'NONE', #407, #108, #301 ) ;
#210 = ADVANCED_FACE ( 'NONE', ( #46, #9 ), #16, .F. ) ;
#211 = DIRECTION ( 'NONE',  ( 0.000000000000000000, -1.000000000000000000, 0.000000000000000000 ) ) ;
#212 = PRODUCT_RELATED_PRODUCT_CATEGORY ( 'detail', '', ( #25 ) ) ;
#213 = CARTESIAN_POINT ( 'NONE',  ( 0.2411153230991256446, 20.91063096490580264, 26.86290120819216654 ) ) ;
#214 = DIRECTION ( 'NONE',  ( -1.554780545042277317E-15, -1.000000000000000000, -1.015778176149630115E-15 ) ) ;
#215 = DIRECTION ( 'NONE',  ( 0.000000000000000000, -1.000000000000000000, 0.000000000000000000 ) ) ;
#216 = CARTESIAN_POINT ( 'NONE',  ( 0.2411153230991256446, 9.520830827426962628, 26.86290120819216654 ) ) ;
#217 = CARTESIAN_POINT ( 'NONE',  ( 0.2411153230991256446, 19.77083082742696263, 26.86290120819215588 ) ) ;
#218 = CARTESIAN_POINT ( 'NONE',  ( 0.2411153230991256446, 27.02083082742696263, 26.86290120819216654 ) ) ;
#219 = CARTESIAN_POINT ( 'NONE',  ( 0.2411153230991256446, 18.02083082742696263, 14.36290120819216654 ) ) ;
#220 = CONICAL_SURFACE ( 'NONE', #329, 8.749999999999998224, 0.7853981633974395082 ) ;
#221 = DIRECTION ( 'NONE',  ( -0.000000000000000000, -1.000000000000000000, -0.000000000000000000 ) ) ;
#222 = AXIS2_PLACEMENT_3D ( 'NONE', #419, #141, #277 ) ;
#223 = CARTESIAN_POINT ( 'NONE',  ( 0.2411153230991256446, 20.77863530722468255, 35.61290120819216298 ) ) ;
#224 = DESIGN_CONTEXT ( 'detailed design', #243, 'design' ) ;
#225 = ORIENTED_EDGE ( 'NONE', *, *, #392, .T. ) ;
#226 = ADVANCED_FACE ( 'NONE', ( #177, #307 ), #279, .F. ) ;
#227 = CARTESIAN_POINT ( 'NONE',  ( -6.246945235467848079, 19.52083082742696263, 22.62408413401124108 ) ) ;
#228 = PERSON ( 'UNSPECIFIED', 'UNSPECIFIED', 'UNSPECIFIED', ('UNSPECIFIED'), ('UNSPECIFIED'), ('UNSPECIFIED') ) ;
#229 = EDGE_LOOP ( 'NONE', ( #203 ) ) ;
#230 = PRODUCT_DEFINITION_FORMATION_WITH_SPECIFIED_SOURCE ( 'ANY', '', #25, .NOT_KNOWN. ) ;
#231 = ORIENTED_EDGE ( 'NONE', *, *, #91, .F. ) ;
#232 = CALENDAR_DATE ( 2023, 7, 3 ) ;
#233 = ORIENTED_EDGE ( 'NONE', *, *, #114, .T. ) ;
#234 = AXIS2_PLACEMENT_3D ( 'NONE', #208, #77, #110 ) ;
#235 = ADVANCED_FACE ( 'NONE', ( #86, #48 ), #171, .T. ) ;
#236 = ORIENTED_EDGE ( 'NONE', *, *, #286, .T. ) ;
#237 = PERSON_AND_ORGANIZATION ( #228, #2 ) ;
#238 = CARTESIAN_POINT ( 'NONE',  ( 0.2411153230991256446, 27.52083082742696263, 26.86290120819216654 ) ) ;
#239 = APPROVAL_PERSON_ORGANIZATION ( #365, #431, #43 ) ;
#240 = DIRECTION ( 'NONE',  ( -0.000000000000000000, -1.000000000000000000, -0.000000000000000000 ) ) ;
#241 = EDGE_CURVE ( 'NONE', #359, #359, #316, .T. ) ;
#242 = DIRECTION ( 'NONE',  ( 0.000000000000000000, 0.000000000000000000, -1.000000000000000000 ) ) ;
#243 = APPLICATION_CONTEXT ( 'configuration controlled 3d designs of mechanical parts and assemblies' ) ;
#244 = CARTESIAN_POINT ( 'NONE',  ( 0.2411153230991269769, 20.87940947118964630, 26.86290120819215588 ) ) ;
#245 = CALENDAR_DATE ( 2023, 7, 3 ) ;
#246 = CIRCLE ( 'NONE', #350, 9.000000000000001776 ) ;
#247 = AXIS2_PLACEMENT_3D ( 'NONE', #149, #88, #282 ) ;
#248 = CARTESIAN_POINT ( 'NONE',  ( 0.2411153230991271990, 21.02083082742695908, 26.86290120819215588 ) ) ;
#249 = CC_DESIGN_PERSON_AND_ORGANIZATION_ASSIGNMENT ( #174, #304, ( #281 ) ) ;
#250 = FACE_OUTER_BOUND ( 'NONE', #30, .T. ) ;
#251 = CYLINDRICAL_SURFACE ( 'NONE', #148, 10.00000000000000178 ) ;
#252 = CARTESIAN_POINT ( 'NONE',  ( 0.2411153230991256446, 19.52083082742696263, 18.26290120819216511 ) ) ;
#253 = CIRCLE ( 'NONE', #100, 7.750000000000001776 ) ;
#254 = CARTESIAN_POINT ( 'NONE',  ( 0.2411153230991256446, 27.52083082742696263, 26.86290120819215588 ) ) ;
#255 = CARTESIAN_POINT ( 'NONE',  ( 0.2411153230991256446, 12.52083082742696085, 11.86290120819216654 ) ) ;
#256 = CARTESIAN_POINT ( 'NONE',  ( 0.2411153230991256446, 27.02083082742696263, 26.86290120819216654 ) ) ;
#257 = DIRECTION ( 'NONE',  ( 0.000000000000000000, 0.000000000000000000, -1.000000000000000000 ) ) ;
#258 = FACE_OUTER_BOUND ( 'NONE', #63, .T. ) ;
#259 = FACE_OUTER_BOUND ( 'NONE', #107, .T. ) ;
#260 = ORIENTED_EDGE ( 'NONE', *, *, #370, .F. ) ;
#261 = VERTEX_POINT ( 'NONE', #227 ) ;
#262 = APPROVAL_ROLE ( '' ) ;
#263 = ORIENTED_EDGE ( 'NONE', *, *, #241, .T. ) ;
#264 = CARTESIAN_POINT ( 'NONE',  ( -6.246945235467848079, 20.02083082742696263, 22.62408413401124108 ) ) ;
#265 = ADVANCED_FACE ( 'NONE', ( #250, #10 ), #251, .T. ) ;
#266 = EDGE_LOOP ( 'NONE', ( #236 ) ) ;
#267 = AXIS2_PLACEMENT_3D ( 'NONE', #53, #143, #117 ) ;
#268 = CARTESIAN_POINT ( 'NONE',  ( -9.758884676900875021, 27.02083082742696263, 26.86290120819216654 ) ) ;
#269 = EDGE_LOOP ( 'NONE', ( #168 ) ) ;
#270 = LOCAL_TIME ( 9, 48, 26.00000000000000000, #28 ) ;
#271 = COORDINATED_UNIVERSAL_TIME_OFFSET ( 0, 0, .AHEAD. ) ;
#272 = CARTESIAN_POINT ( 'NONE',  ( 0.2411153230991256446, 9.520830827426962628, 26.86290120819216654 ) ) ;
#273 = MANIFOLD_SOLID_BREP ( 'Revolve1', #377 ) ;
#274 = DIRECTION ( 'NONE',  ( 0.000000000000000000, 0.000000000000000000, -1.000000000000000000 ) ) ;
#275 = FACE_OUTER_BOUND ( 'NONE', #287, .T. ) ;
#276 = DIRECTION ( 'NONE',  ( -0.000000000000000000, -1.000000000000000000, -0.000000000000000000 ) ) ;
#277 = DIRECTION ( 'NONE',  ( 0.000000000000000000, 0.000000000000000000, -1.000000000000000000 ) ) ;
#278 = CYLINDRICAL_SURFACE ( 'NONE', #417, 8.599999999999999645 ) ;
#279 = PLANE ( 'NONE',  #295 ) ;
#280 = VERTEX_POINT ( 'NONE', #319 ) ;
#281 = SECURITY_CLASSIFICATION ( '', '', #298 ) ;
#282 = DIRECTION ( 'NONE',  ( 0.000000000000000000, -0.000000000000000000, 1.000000000000000000 ) ) ;
#283 = FACE_OUTER_BOUND ( 'NONE', #24, .T. ) ;
#284 = DIRECTION ( 'NONE',  ( 0.000000000000000000, -1.000000000000000000, -0.000000000000000000 ) ) ;
#285 = DIRECTION ( 'NONE',  ( -0.8371691043312222691, 1.857188155891542243E-15, -0.5469441386039886055 ) ) ;
#286 = EDGE_CURVE ( 'NONE', #288, #288, #170, .T. ) ;
#287 = EDGE_LOOP ( 'NONE', ( #164 ) ) ;
#288 = VERTEX_POINT ( 'NONE', #124 ) ;
#289 = CC_DESIGN_PERSON_AND_ORGANIZATION_ASSIGNMENT ( #135, #6, ( #230 ) ) ;
#290 = EDGE_LOOP ( 'NONE', ( #395 ) ) ;
#291 = EDGE_LOOP ( 'NONE', ( #190 ) ) ;
#292 = APPROVAL_STATUS ( 'not_yet_approved' ) ;
#293 = ORIENTED_EDGE ( 'NONE', *, *, #58, .F. ) ;
#294 = EDGE_LOOP ( 'NONE', ( #37 ) ) ;
#295 = AXIS2_PLACEMENT_3D ( 'NONE', #383, #284, #385 ) ;
#296 = DIRECTION ( 'NONE',  ( 0.000000000000000000, 0.000000000000000000, 1.000000000000000000 ) ) ;
#297 = FACE_OUTER_BOUND ( 'NONE', #426, .T. ) ;
#298 = SECURITY_CLASSIFICATION_LEVEL ( 'unclassified' ) ;
#299 = EDGE_LOOP ( 'NONE', ( #366 ) ) ;
#300 = PERSON_AND_ORGANIZATION_ROLE ( 'design_supplier' ) ;
#301 = DIRECTION ( 'NONE',  ( 0.000000000000000000, 0.000000000000000000, -1.000000000000000000 ) ) ;
#302 = CIRCLE ( 'NONE', #206, 7.750000000000001776 ) ;
#303 = DIRECTION ( 'NONE',  ( 0.000000000000000000, 0.000000000000000000, -1.000000000000000000 ) ) ;
#304 = PERSON_AND_ORGANIZATION_ROLE ( 'classification_officer' ) ;
#305 = AXIS2_PLACEMENT_3D ( 'NONE', #238, #169, #274 ) ;
#306 = CARTESIAN_POINT ( 'NONE',  ( 0.2411153230991256446, 18.02083082742696263, 26.86290120819216654 ) ) ;
#307 = FACE_BOUND ( 'NONE', #196, .T. ) ;
#308 = DIRECTION ( 'NONE',  ( 0.000000000000000000, 0.000000000000000000, -1.000000000000000000 ) ) ;
#309 = PLANE ( 'NONE',  #92 ) ;
#310 = ADVANCED_FACE ( 'NONE', ( #83, #186 ), #220, .T. ) ;
#311 = FACE_BOUND ( 'NONE', #390, .T. ) ;
#312 = DIRECTION ( 'NONE',  ( -0.000000000000000000, -1.000000000000000000, -0.000000000000000000 ) ) ;
#313 = AXIS2_PLACEMENT_3D ( 'NONE', #172, #41, #70 ) ;
#314 = CARTESIAN_POINT ( 'NONE',  ( 0.2411153230991256446, 19.52083082742696263, 26.86290120819215588 ) ) ;
#315 = FACE_OUTER_BOUND ( 'NONE', #334, .T. ) ;
#316 = CIRCLE ( 'NONE', #29, 15.00000000000000000 ) ;
#317 = CARTESIAN_POINT ( 'NONE',  ( 0.2411153230991269769, 20.87940947118964630, 26.86290120819215588 ) ) ;
#318 = DIRECTION ( 'NONE',  ( 0.000000000000000000, 0.000000000000000000, 1.000000000000000000 ) ) ;
#319 = CARTESIAN_POINT ( 'NONE',  ( 0.2411153230991256446, 18.02083082742696263, 17.36799461647142806 ) ) ;
#320 = ORIENTED_EDGE ( 'NONE', *, *, #187, .T. ) ;
#321 = APPROVAL_STATUS ( 'not_yet_approved' ) ;
#322 = LOCAL_TIME ( 9, 48, 26.00000000000000000, #363 ) ;
#323 = CARTESIAN_POINT ( 'NONE',  ( 0.2411153230991256446, 13.99591616043324649, 17.36799461647142806 ) ) ;
#324 = CC_DESIGN_DATE_AND_TIME_ASSIGNMENT ( #159, #201, ( #34 ) ) ;
#325 = ORIENTED_EDGE ( 'NONE', *, *, #376, .T. ) ;
#326 = AXIS2_PLACEMENT_3D ( 'NONE', #254, #339, #414 ) ;
#327 = EDGE_LOOP ( 'NONE', ( #358 ) ) ;
#328 = APPLICATION_PROTOCOL_DEFINITION ( 'international standard', 'config_control_design', 1994, #243 ) ;
#329 = AXIS2_PLACEMENT_3D ( 'NONE', #317, #214, #181 ) ;
#330 = EDGE_LOOP ( 'NONE', ( #233 ) ) ;
#331 = ADVANCED_FACE ( 'NONE', ( #19, #343 ), #50, .T. ) ;
#332 = ORIENTED_EDGE ( 'NONE', *, *, #286, .F. ) ;
#333 = APPROVAL_STATUS ( 'not_yet_approved' ) ;
#334 = EDGE_LOOP ( 'NONE', ( #207 ) ) ;
#335 = AXIS2_PLACEMENT_3D ( 'NONE', #272, #240, #401 ) ;
#336 = PLANE ( 'NONE',  #313 ) ;
#337 = AXIS2_PLACEMENT_3D ( 'NONE', #22, #312, #189 ) ;
#338 = DIRECTION ( 'NONE',  ( -0.000000000000000000, -1.000000000000000000, -0.000000000000000000 ) ) ;
#339 = DIRECTION ( 'NONE',  ( 0.000000000000000000, -1.000000000000000000, 0.000000000000000000 ) ) ;
#340 = DIRECTION ( 'NONE',  ( -1.554780545042277317E-15, -1.000000000000000000, -1.015778176149630115E-15 ) ) ;
#341 = ADVANCED_FACE ( 'NONE', ( #121, #258 ), #387, .F. ) ;
#342 = CARTESIAN_POINT ( 'NONE',  ( -12.25888467690087502, 18.02083082742696263, 26.86290120819216654 ) ) ;
#343 = FACE_OUTER_BOUND ( 'NONE', #352, .T. ) ;
#344 = DIRECTION ( 'NONE',  ( -0.8371691043312221581, 0.000000000000000000, -0.5469441386039887165 ) ) ;
#345 = CIRCLE ( 'NONE', #209, 15.00000000000000000 ) ;
#346 = CYLINDRICAL_SURFACE ( 'NONE', #234, 9.000000000000001776 ) ;
#347 = CARTESIAN_POINT ( 'NONE',  ( -7.084114339799066684, 20.87940947118966406, 22.07713999540725425 ) ) ;
#348 = FACE_OUTER_BOUND ( 'NONE', #64, .T. ) ;
#349 = CARTESIAN_POINT ( 'NONE',  ( -8.358884676900874666, 9.520830827426962628, 26.86290120819216654 ) ) ;
#350 = AXIS2_PLACEMENT_3D ( 'NONE', #213, #122, #318 ) ;
#351 = VERTEX_POINT ( 'NONE', #59 ) ;
#352 = EDGE_LOOP ( 'NONE', ( #67 ) ) ;
#353 = VERTEX_POINT ( 'NONE', #95 ) ;
#354 = EDGE_LOOP ( 'NONE', ( #372 ) ) ;
#355 = PERSON_AND_ORGANIZATION_ROLE ( 'creator' ) ;
#356 = ADVANCED_FACE ( 'NONE', ( #415, #154 ), #309, .F. ) ;
#357 = EDGE_LOOP ( 'NONE', ( #60 ) ) ;
#358 = ORIENTED_EDGE ( 'NONE', *, *, #58, .T. ) ;
#359 = VERTEX_POINT ( 'NONE', #98 ) ;
#360 = AXIS2_PLACEMENT_3D ( 'NONE', #244, #5, #139 ) ;
#361 = EDGE_LOOP ( 'NONE', ( #293 ) ) ;
#362 = ADVANCED_FACE ( 'NONE', ( #315, #259 ), #57, .T. ) ;
#363 = COORDINATED_UNIVERSAL_TIME_OFFSET ( 0, 0, .AHEAD. ) ;
#364 = ORIENTED_EDGE ( 'NONE', *, *, #114, .F. ) ;
#365 = PERSON_AND_ORGANIZATION ( #228, #2 ) ;
#366 = ORIENTED_EDGE ( 'NONE', *, *, #173, .F. ) ;
#367 = EDGE_LOOP ( 'NONE', ( #429 ) ) ;
#368 = SHAPE_DEFINITION_REPRESENTATION ( #155, #167 ) ;
#369 = AXIS2_PLACEMENT_3D ( 'NONE', #4, #175, #303 ) ;
#370 = EDGE_CURVE ( 'NONE', #353, #353, #246, .T. ) ;
#371 = AXIS2_PLACEMENT_3D ( 'NONE', #49, #18, #422 ) ;
#372 = ORIENTED_EDGE ( 'NONE', *, *, #52, .F. ) ;
#373 = COORDINATED_UNIVERSAL_TIME_OFFSET ( 0, 0, .AHEAD. ) ;
#374 = FACE_OUTER_BOUND ( 'NONE', #229, .T. ) ;
#375 = CYLINDRICAL_SURFACE ( 'NONE', #267, 12.50000000000000000 ) ;
#376 = EDGE_CURVE ( 'NONE', #102, #102, #302, .T. ) ;
#377 = CLOSED_SHELL ( 'NONE', ( #356, #331, #235, #397, #341, #178, #7, #265, #226, #410, #210, #425, #158, #193, #85, #310, #362, #388 ) ) ;
#378 = DIRECTION ( 'NONE',  ( -0.8371691043312223801, 0.000000000000000000, -0.5469441386039887165 ) ) ;
#379 = DIRECTION ( 'NONE',  ( 0.000000000000000000, 0.000000000000000000, -1.000000000000000000 ) ) ;
#380 = APPROVAL_PERSON_ORGANIZATION ( #38, #413, #262 ) ;
#381 = DIRECTION ( 'NONE',  ( 0.000000000000000000, 1.000000000000000000, 0.000000000000000000 ) ) ;
#382 = CONICAL_SURFACE ( 'NONE', #36, 8.599999999999996092, 1.085014024102012087 ) ;
#383 = CARTESIAN_POINT ( 'NONE',  ( -9.758884676900875021, 27.52083082742696263, 26.86290120819216654 ) ) ;
#384 = VERTEX_POINT ( 'NONE', #255 ) ;
#385 = DIRECTION ( 'NONE',  ( 0.000000000000000000, 0.000000000000000000, -1.000000000000000000 ) ) ;
#386 = FACE_OUTER_BOUND ( 'NONE', #156, .T. ) ;
#387 = PLANE ( 'NONE',  #130 ) ;
#388 = ADVANCED_FACE ( 'NONE', ( #120 ), #11, .T. ) ;
#389 = CARTESIAN_POINT ( 'NONE',  ( 0.2411153230991256446, 9.520830827426962628, 26.86290120819216654 ) ) ;
#390 = EDGE_LOOP ( 'NONE', ( #134 ) ) ;
#391 = CARTESIAN_POINT ( 'NONE',  ( -7.293406615881876220, 27.52083082742696263, 21.94040396075625665 ) ) ;
#392 = EDGE_CURVE ( 'NONE', #33, #33, #17, .T. ) ;
#393 = COORDINATED_UNIVERSAL_TIME_OFFSET ( 0, 0, .AHEAD. ) ;
#394 = AXIS2_PLACEMENT_3D ( 'NONE', #412, #420, #84 ) ;
#395 = ORIENTED_EDGE ( 'NONE', *, *, #241, .F. ) ;
#396 =( NAMED_UNIT ( * ) SI_UNIT ( $, .STERADIAN. ) SOLID_ANGLE_UNIT ( ) );
#397 = ADVANCED_FACE ( 'NONE', ( #180, #144 ), #15, .T. ) ;
#398 = ORIENTED_EDGE ( 'NONE', *, *, #52, .T. ) ;
#399 = PERSON_AND_ORGANIZATION ( #228, #2 ) ;
#400 = CIRCLE ( 'NONE', #305, 10.00000000000000178 ) ;
#401 = DIRECTION ( 'NONE',  ( 0.000000000000000000, 0.000000000000000000, -1.000000000000000000 ) ) ;
#402 = DATE_AND_TIME ( #1, #35 ) ;
#403 = ORIENTED_EDGE ( 'NONE', *, *, #173, .T. ) ;
#404 = EDGE_LOOP ( 'NONE', ( #263 ) ) ;
#405 = DATE_AND_TIME ( #245, #74 ) ;
#406 = CIRCLE ( 'NONE', #79, 10.00000000000000178 ) ;
#407 = CARTESIAN_POINT ( 'NONE',  ( 0.2411153230991256446, 12.52083082742696085, 26.86290120819216654 ) ) ;
#408 = CC_DESIGN_APPROVAL ( #413, ( #230 ) ) ;
#409 = FACE_OUTER_BOUND ( 'NONE', #161, .T. ) ;
#410 = ADVANCED_FACE ( 'NONE', ( #147, #283 ), #278, .F. ) ;
#411 = DIRECTION ( 'NONE',  ( 0.000000000000000000, 0.000000000000000000, -1.000000000000000000 ) ) ;
#412 = CARTESIAN_POINT ( 'NONE',  ( 0.2411153230991271990, 21.02083082742696973, 26.86290120819215588 ) ) ;
#413 = APPROVAL ( #292, 'UNSPECIFIED' ) ;
#414 = DIRECTION ( 'NONE',  ( -0.8371691043312222691, 0.000000000000000000, -0.5469441386039887165 ) ) ;
#415 = FACE_BOUND ( 'NONE', #354, .T. ) ;
#416 = DIRECTION ( 'NONE',  ( -0.8371691043312222691, 2.015110214778247730E-15, -0.5469441386039886055 ) ) ;
#417 = AXIS2_PLACEMENT_3D ( 'NONE', #389, #93, #257 ) ;
#418 = VERTEX_POINT ( 'NONE', #252 ) ;
#419 = CARTESIAN_POINT ( 'NONE',  ( 0.2411153230991256446, 13.99591616043324649, 26.86290120819216654 ) ) ;
#420 = DIRECTION ( 'NONE',  ( -1.554780545042277317E-15, -1.000000000000000000, -1.015778176149630115E-15 ) ) ;
#421 = DIRECTION ( 'NONE',  ( 0.000000000000000000, 0.000000000000000000, -1.000000000000000000 ) ) ;
#422 = DIRECTION ( 'NONE',  ( 0.000000000000000000, 0.000000000000000000, -1.000000000000000000 ) ) ;
#423 = APPROVAL_ROLE ( '' ) ;
#424 = CC_DESIGN_APPROVAL ( #431, ( #281 ) ) ;
#425 = ADVANCED_FACE ( 'NONE', ( #386, #115 ), #27, .T. ) ;
#426 = EDGE_LOOP ( 'NONE', ( #332 ) ) ;
#427 = DIRECTION ( 'NONE',  ( 1.000000000000000000, 0.000000000000000000, 0.000000000000000000 ) ) ;
#428 = MECHANICAL_CONTEXT ( 'NONE', #96, 'mechanical' ) ;
#429 = ORIENTED_EDGE ( 'NONE', *, *, #192, .T. ) ;
#430 = CARTESIAN_POINT ( 'NONE',  ( 0.2411153230991256446, 27.02083082742696263, 16.86290120819216298 ) ) ;
#431 = APPROVAL ( #333, 'UNSPECIFIED' ) ;
#432 = CC_DESIGN_PERSON_AND_ORGANIZATION_ASSIGNMENT ( #237, #355, ( #34 ) ) ;
#433 = PLANE ( 'NONE',  #434 ) ;
#434 = AXIS2_PLACEMENT_3D ( 'NONE', #268, #42, #242 ) ;
#435 = EDGE_LOOP ( 'NONE', ( #325 ) ) ;
ENDSEC;
END-ISO-10303-21;
