ISO-10303-21;
HEADER;
/* Generated by software containing ST-Developer
 * from STEP Tools, Inc. (www.steptools.com) 
 */
/* OPTION: strings as raw bytes, not using required /X/ escapes */

FILE_DESCRIPTION(
/* description */ (''),
/* implementation_level */ '2;1');

FILE_NAME(
/* name */ '33.250003.260.325',
/* time_stamp */ '2019-06-18T13:19:26+02:00',
/* author */ ('Murat Coskun Bicak'),
/* organization */ ('Evac AG'),
/* preprocessor_version */ 'ST-DEVELOPER v16.7',
/* originating_system */ 'DEX',
/* authorisation */ $);

FILE_SCHEMA (('AUTOMOTIVE_DESIGN {1 0 10303 214 3 1 1}'));
ENDSEC;

DATA;
#10=PROPERTY_DEFINITION_REPRESENTATION(#14,#12);
#11=PROPERTY_DEFINITION_REPRESENTATION(#15,#13);
#12=REPRESENTATION('',(#16),#559);
#13=REPRESENTATION('',(#17),#559);
#14=PROPERTY_DEFINITION('pmi validation property','',#568);
#15=PROPERTY_DEFINITION('pmi validation property','',#568);
#16=VALUE_REPRESENTATION_ITEM('number of annotations',COUNT_MEASURE(0.));
#17=VALUE_REPRESENTATION_ITEM('number of views',COUNT_MEASURE(0.));
#18=CONICAL_SURFACE('',#353,138.5,0.785398163397448);
#19=CONICAL_SURFACE('',#356,130.5,0.785398163397448);
#20=CONICAL_SURFACE('',#359,136.5,0.785398163397448);
#21=CONICAL_SURFACE('',#362,139.5,1.22173047639603);
#22=CONICAL_SURFACE('',#367,150.5,0.785398163397448);
#23=CONICAL_SURFACE('',#368,131.,0.785398163397448);
#24=TOROIDAL_SURFACE('',#350,140.5,1.);
#25=TOROIDAL_SURFACE('',#372,148.5,2.);
#26=CONTEXT_DEPENDENT_SHAPE_REPRESENTATION(#34,#570);
#27=CONTEXT_DEPENDENT_SHAPE_REPRESENTATION(#35,#572);
#28=CONTEXT_DEPENDENT_SHAPE_REPRESENTATION(#36,#573);
#29=CONTEXT_DEPENDENT_SHAPE_REPRESENTATION(#37,#574);
#30=NEXT_ASSEMBLY_USAGE_OCCURRENCE('33.250003.260.325-Rohr',
'33.250003.260.325-Rohr','33.250003.260.325-Rohr',#575,#576,'');
#31=NEXT_ASSEMBLY_USAGE_OCCURRENCE('32.250003.210.325',
'32.250003.210.325','32.250003.210.325',#575,#577,'');
#32=NEXT_ASSEMBLY_USAGE_OCCURRENCE('32.250003.210.325',
'32.250003.210.325','32.250003.210.325',#575,#577,'');
#33=NEXT_ASSEMBLY_USAGE_OCCURRENCE('32.250003.210.325',
'32.250003.210.325','32.250003.210.325',#575,#577,'');
#34=(
REPRESENTATION_RELATIONSHIP(' ',' ',#322,#323)
REPRESENTATION_RELATIONSHIP_WITH_TRANSFORMATION(#38)
SHAPE_REPRESENTATION_RELATIONSHIP()
);
#35=(
REPRESENTATION_RELATIONSHIP(' ',' ',#324,#323)
REPRESENTATION_RELATIONSHIP_WITH_TRANSFORMATION(#39)
SHAPE_REPRESENTATION_RELATIONSHIP()
);
#36=(
REPRESENTATION_RELATIONSHIP(' ',' ',#324,#323)
REPRESENTATION_RELATIONSHIP_WITH_TRANSFORMATION(#40)
SHAPE_REPRESENTATION_RELATIONSHIP()
);
#37=(
REPRESENTATION_RELATIONSHIP(' ',' ',#324,#323)
REPRESENTATION_RELATIONSHIP_WITH_TRANSFORMATION(#41)
SHAPE_REPRESENTATION_RELATIONSHIP()
);
#38=ITEM_DEFINED_TRANSFORMATION(' ',' ',#325,#343);
#39=ITEM_DEFINED_TRANSFORMATION(' ',' ',#325,#374);
#40=ITEM_DEFINED_TRANSFORMATION(' ',' ',#325,#375);
#41=ITEM_DEFINED_TRANSFORMATION(' ',' ',#325,#376);
#42=SHAPE_REPRESENTATION_RELATIONSHIP('','',#322,#44);
#43=SHAPE_REPRESENTATION_RELATIONSHIP('','',#324,#45);
#44=ADVANCED_BREP_SHAPE_REPRESENTATION('',(#317),#560);
#45=ADVANCED_BREP_SHAPE_REPRESENTATION('',(#318),#561);
#46=PLANE('',#340);
#47=PLANE('',#341);
#48=PLANE('',#342);
#49=PLANE('',#344);
#50=PLANE('',#371);
#51=PLANE('',#373);
#52=ELLIPSE('',#329,184.554869889689,130.5);
#53=ELLIPSE('',#330,184.554869889689,130.5);
#54=ELLIPSE('',#333,193.040151263927,136.5);
#55=ELLIPSE('',#334,193.040151263927,136.5);
#56=ORIENTED_EDGE('',*,*,#106,.T.);
#57=ORIENTED_EDGE('',*,*,#107,.F.);
#58=ORIENTED_EDGE('',*,*,#108,.F.);
#59=ORIENTED_EDGE('',*,*,#109,.F.);
#60=ORIENTED_EDGE('',*,*,#110,.F.);
#61=ORIENTED_EDGE('',*,*,#111,.F.);
#62=ORIENTED_EDGE('',*,*,#112,.T.);
#63=ORIENTED_EDGE('',*,*,#113,.T.);
#64=ORIENTED_EDGE('',*,*,#108,.T.);
#65=ORIENTED_EDGE('',*,*,#109,.T.);
#66=ORIENTED_EDGE('',*,*,#114,.F.);
#67=ORIENTED_EDGE('',*,*,#112,.F.);
#68=ORIENTED_EDGE('',*,*,#111,.T.);
#69=ORIENTED_EDGE('',*,*,#115,.T.);
#70=ORIENTED_EDGE('',*,*,#115,.F.);
#71=ORIENTED_EDGE('',*,*,#107,.T.);
#72=ORIENTED_EDGE('',*,*,#110,.T.);
#73=ORIENTED_EDGE('',*,*,#113,.F.);
#74=ORIENTED_EDGE('',*,*,#106,.F.);
#75=ORIENTED_EDGE('',*,*,#114,.T.);
#76=ORIENTED_EDGE('',*,*,#116,.T.);
#77=ORIENTED_EDGE('',*,*,#117,.F.);
#78=ORIENTED_EDGE('',*,*,#118,.F.);
#79=ORIENTED_EDGE('',*,*,#119,.T.);
#80=ORIENTED_EDGE('',*,*,#120,.F.);
#81=ORIENTED_EDGE('',*,*,#121,.F.);
#82=ORIENTED_EDGE('',*,*,#122,.F.);
#83=ORIENTED_EDGE('',*,*,#123,.T.);
#84=ORIENTED_EDGE('',*,*,#124,.F.);
#85=ORIENTED_EDGE('',*,*,#125,.T.);
#86=ORIENTED_EDGE('',*,*,#126,.F.);
#87=ORIENTED_EDGE('',*,*,#127,.T.);
#88=ORIENTED_EDGE('',*,*,#121,.T.);
#89=ORIENTED_EDGE('',*,*,#128,.T.);
#90=ORIENTED_EDGE('',*,*,#123,.F.);
#91=ORIENTED_EDGE('',*,*,#120,.T.);
#92=ORIENTED_EDGE('',*,*,#129,.T.);
#93=ORIENTED_EDGE('',*,*,#124,.T.);
#94=ORIENTED_EDGE('',*,*,#118,.T.);
#95=ORIENTED_EDGE('',*,*,#116,.F.);
#96=ORIENTED_EDGE('',*,*,#117,.T.);
#97=ORIENTED_EDGE('',*,*,#129,.F.);
#98=ORIENTED_EDGE('',*,*,#130,.F.);
#99=ORIENTED_EDGE('',*,*,#126,.T.);
#100=ORIENTED_EDGE('',*,*,#130,.T.);
#101=ORIENTED_EDGE('',*,*,#125,.F.);
#102=ORIENTED_EDGE('',*,*,#128,.F.);
#103=ORIENTED_EDGE('',*,*,#119,.F.);
#104=ORIENTED_EDGE('',*,*,#127,.F.);
#105=ORIENTED_EDGE('',*,*,#122,.T.);
#106=EDGE_CURVE('',#131,#131,#156,.T.);
#107=EDGE_CURVE('',#132,#132,#157,.T.);
#108=EDGE_CURVE('',#133,#134,#52,.F.);
#109=EDGE_CURVE('',#134,#133,#53,.T.);
#110=EDGE_CURVE('',#135,#135,#158,.T.);
#111=EDGE_CURVE('',#136,#137,#54,.T.);
#112=EDGE_CURVE('',#136,#137,#55,.T.);
#113=EDGE_CURVE('',#138,#138,#159,.T.);
#114=EDGE_CURVE('',#139,#139,#160,.T.);
#115=EDGE_CURVE('',#140,#140,#161,.T.);
#116=EDGE_CURVE('',#141,#141,#162,.T.);
#117=EDGE_CURVE('',#142,#142,#163,.T.);
#118=EDGE_CURVE('',#143,#143,#164,.T.);
#119=EDGE_CURVE('',#144,#144,#165,.T.);
#120=EDGE_CURVE('',#145,#145,#166,.T.);
#121=EDGE_CURVE('',#146,#146,#167,.T.);
#122=EDGE_CURVE('',#147,#147,#168,.T.);
#123=EDGE_CURVE('',#148,#148,#169,.T.);
#124=EDGE_CURVE('',#149,#149,#170,.T.);
#125=EDGE_CURVE('',#150,#150,#171,.T.);
#126=EDGE_CURVE('',#151,#151,#172,.T.);
#127=EDGE_CURVE('',#152,#152,#173,.T.);
#128=EDGE_CURVE('',#153,#153,#174,.T.);
#129=EDGE_CURVE('',#154,#154,#175,.T.);
#130=EDGE_CURVE('',#155,#155,#176,.T.);
#131=VERTEX_POINT('',#484);
#132=VERTEX_POINT('',#486);
#133=VERTEX_POINT('',#488);
#134=VERTEX_POINT('',#489);
#135=VERTEX_POINT('',#493);
#136=VERTEX_POINT('',#495);
#137=VERTEX_POINT('',#496);
#138=VERTEX_POINT('',#500);
#139=VERTEX_POINT('',#503);
#140=VERTEX_POINT('',#505);
#141=VERTEX_POINT('',#512);
#142=VERTEX_POINT('',#514);
#143=VERTEX_POINT('',#517);
#144=VERTEX_POINT('',#519);
#145=VERTEX_POINT('',#522);
#146=VERTEX_POINT('',#524);
#147=VERTEX_POINT('',#527);
#148=VERTEX_POINT('',#529);
#149=VERTEX_POINT('',#532);
#150=VERTEX_POINT('',#534);
#151=VERTEX_POINT('',#537);
#152=VERTEX_POINT('',#539);
#153=VERTEX_POINT('',#542);
#154=VERTEX_POINT('',#546);
#155=VERTEX_POINT('',#551);
#156=CIRCLE('',#327,130.5);
#157=CIRCLE('',#328,130.5);
#158=CIRCLE('',#332,136.5);
#159=CIRCLE('',#336,130.5);
#160=CIRCLE('',#338,136.5);
#161=CIRCLE('',#339,136.5);
#162=CIRCLE('',#345,150.);
#163=CIRCLE('',#346,131.);
#164=CIRCLE('',#348,150.5);
#165=CIRCLE('',#349,150.5);
#166=CIRCLE('',#351,139.5);
#167=CIRCLE('',#352,140.157979856674);
#168=CIRCLE('',#354,138.5);
#169=CIRCLE('',#355,139.5);
#170=CIRCLE('',#357,130.5);
#171=CIRCLE('',#358,130.7);
#172=CIRCLE('',#360,136.5);
#173=CIRCLE('',#361,136.7);
#174=CIRCLE('',#363,149.184040286651);
#175=CIRCLE('',#366,130.5);
#176=CIRCLE('',#370,136.5);
#177=EDGE_LOOP('',(#56));
#178=EDGE_LOOP('',(#57));
#179=EDGE_LOOP('',(#58,#59));
#180=EDGE_LOOP('',(#60));
#181=EDGE_LOOP('',(#61,#62));
#182=EDGE_LOOP('',(#63));
#183=EDGE_LOOP('',(#64,#65));
#184=EDGE_LOOP('',(#66));
#185=EDGE_LOOP('',(#67,#68));
#186=EDGE_LOOP('',(#69));
#187=EDGE_LOOP('',(#70));
#188=EDGE_LOOP('',(#71));
#189=EDGE_LOOP('',(#72));
#190=EDGE_LOOP('',(#73));
#191=EDGE_LOOP('',(#74));
#192=EDGE_LOOP('',(#75));
#193=EDGE_LOOP('',(#76));
#194=EDGE_LOOP('',(#77));
#195=EDGE_LOOP('',(#78));
#196=EDGE_LOOP('',(#79));
#197=EDGE_LOOP('',(#80));
#198=EDGE_LOOP('',(#81));
#199=EDGE_LOOP('',(#82));
#200=EDGE_LOOP('',(#83));
#201=EDGE_LOOP('',(#84));
#202=EDGE_LOOP('',(#85));
#203=EDGE_LOOP('',(#86));
#204=EDGE_LOOP('',(#87));
#205=EDGE_LOOP('',(#88));
#206=EDGE_LOOP('',(#89));
#207=EDGE_LOOP('',(#90));
#208=EDGE_LOOP('',(#91));
#209=EDGE_LOOP('',(#92));
#210=EDGE_LOOP('',(#93));
#211=EDGE_LOOP('',(#94));
#212=EDGE_LOOP('',(#95));
#213=EDGE_LOOP('',(#96));
#214=EDGE_LOOP('',(#97));
#215=EDGE_LOOP('',(#98));
#216=EDGE_LOOP('',(#99));
#217=EDGE_LOOP('',(#100));
#218=EDGE_LOOP('',(#101));
#219=EDGE_LOOP('',(#102));
#220=EDGE_LOOP('',(#103));
#221=EDGE_LOOP('',(#104));
#222=EDGE_LOOP('',(#105));
#223=FACE_BOUND('',#177,.T.);
#224=FACE_BOUND('',#178,.T.);
#225=FACE_BOUND('',#179,.T.);
#226=FACE_BOUND('',#180,.T.);
#227=FACE_BOUND('',#181,.T.);
#228=FACE_BOUND('',#182,.T.);
#229=FACE_BOUND('',#183,.T.);
#230=FACE_BOUND('',#184,.T.);
#231=FACE_BOUND('',#185,.T.);
#232=FACE_BOUND('',#186,.T.);
#233=FACE_BOUND('',#187,.T.);
#234=FACE_BOUND('',#188,.T.);
#235=FACE_BOUND('',#189,.T.);
#236=FACE_BOUND('',#190,.T.);
#237=FACE_BOUND('',#191,.T.);
#238=FACE_BOUND('',#192,.T.);
#239=FACE_BOUND('',#193,.T.);
#240=FACE_BOUND('',#194,.T.);
#241=FACE_BOUND('',#195,.T.);
#242=FACE_BOUND('',#196,.T.);
#243=FACE_BOUND('',#197,.T.);
#244=FACE_BOUND('',#198,.T.);
#245=FACE_BOUND('',#199,.T.);
#246=FACE_BOUND('',#200,.T.);
#247=FACE_BOUND('',#201,.T.);
#248=FACE_BOUND('',#202,.T.);
#249=FACE_BOUND('',#203,.T.);
#250=FACE_BOUND('',#204,.T.);
#251=FACE_BOUND('',#205,.T.);
#252=FACE_BOUND('',#206,.T.);
#253=FACE_BOUND('',#207,.T.);
#254=FACE_BOUND('',#208,.T.);
#255=FACE_BOUND('',#209,.T.);
#256=FACE_BOUND('',#210,.T.);
#257=FACE_BOUND('',#211,.T.);
#258=FACE_BOUND('',#212,.T.);
#259=FACE_BOUND('',#213,.T.);
#260=FACE_BOUND('',#214,.T.);
#261=FACE_BOUND('',#215,.T.);
#262=FACE_BOUND('',#216,.T.);
#263=FACE_BOUND('',#217,.T.);
#264=FACE_BOUND('',#218,.T.);
#265=FACE_BOUND('',#219,.T.);
#266=FACE_BOUND('',#220,.T.);
#267=FACE_BOUND('',#221,.T.);
#268=FACE_BOUND('',#222,.T.);
#269=CYLINDRICAL_SURFACE('',#326,130.5);
#270=CYLINDRICAL_SURFACE('',#331,136.5);
#271=CYLINDRICAL_SURFACE('',#335,130.5);
#272=CYLINDRICAL_SURFACE('',#337,136.5);
#273=CYLINDRICAL_SURFACE('',#347,150.5);
#274=CYLINDRICAL_SURFACE('',#364,139.5);
#275=CYLINDRICAL_SURFACE('',#365,130.5);
#276=CYLINDRICAL_SURFACE('',#369,136.5);
#277=ADVANCED_FACE('',(#223,#224,#225),#269,.F.);
#278=ADVANCED_FACE('',(#226,#227),#270,.T.);
#279=ADVANCED_FACE('',(#228,#229),#271,.F.);
#280=ADVANCED_FACE('',(#230,#231,#232),#272,.T.);
#281=ADVANCED_FACE('',(#233,#234),#46,.F.);
#282=ADVANCED_FACE('',(#235,#236),#47,.F.);
#283=ADVANCED_FACE('',(#237,#238),#48,.F.);
#284=ADVANCED_FACE('',(#239,#240),#49,.T.);
#285=ADVANCED_FACE('',(#241,#242),#273,.T.);
#286=ADVANCED_FACE('',(#243,#244),#24,.F.);
#287=ADVANCED_FACE('',(#245,#246),#18,.T.);
#288=ADVANCED_FACE('',(#247,#248),#19,.F.);
#289=ADVANCED_FACE('',(#249,#250),#20,.F.);
#290=ADVANCED_FACE('',(#251,#252),#21,.T.);
#291=ADVANCED_FACE('',(#253,#254),#274,.T.);
#292=ADVANCED_FACE('',(#255,#256),#275,.F.);
#293=ADVANCED_FACE('',(#257,#258),#22,.T.);
#294=ADVANCED_FACE('',(#259,#260),#23,.F.);
#295=ADVANCED_FACE('',(#261,#262),#276,.F.);
#296=ADVANCED_FACE('',(#263,#264),#50,.T.);
#297=ADVANCED_FACE('',(#265,#266),#25,.T.);
#298=ADVANCED_FACE('',(#267,#268),#51,.T.);
#299=CLOSED_SHELL('',(#277,#278,#279,#280,#281,#282,#283));
#300=CLOSED_SHELL('',(#284,#285,#286,#287,#288,#289,#290,#291,#292,#293,
#294,#295,#296,#297,#298));
#301=STYLED_ITEM('',(#303),#317);
#302=STYLED_ITEM('',(#304),#318);
#303=PRESENTATION_STYLE_ASSIGNMENT((#305));
#304=PRESENTATION_STYLE_ASSIGNMENT((#306));
#305=SURFACE_STYLE_USAGE(.BOTH.,#307);
#306=SURFACE_STYLE_USAGE(.BOTH.,#308);
#307=SURFACE_SIDE_STYLE('',(#309));
#308=SURFACE_SIDE_STYLE('',(#310));
#309=SURFACE_STYLE_FILL_AREA(#311);
#310=SURFACE_STYLE_FILL_AREA(#312);
#311=FILL_AREA_STYLE('',(#313));
#312=FILL_AREA_STYLE('',(#314));
#313=FILL_AREA_STYLE_COLOUR('',#315);
#314=FILL_AREA_STYLE_COLOUR('',#316);
#315=COLOUR_RGB('',0.506983280181885,0.531564235687256,0.550000011920929);
#316=COLOUR_RGB('',0.517647087574005,0.517647087574005,0.517647087574005);
#317=MANIFOLD_SOLID_BREP('',#299);
#318=MANIFOLD_SOLID_BREP('1',#300);
#319=SHAPE_DEFINITION_REPRESENTATION(#569,#322);
#320=SHAPE_DEFINITION_REPRESENTATION(#568,#323);
#321=SHAPE_DEFINITION_REPRESENTATION(#571,#324);
#322=SHAPE_REPRESENTATION('33.250003.260.325-Rohr',(#325),#560);
#323=SHAPE_REPRESENTATION('33.250003.260.325',(#325,#343,#374,#375,#376),
#559);
#324=SHAPE_REPRESENTATION('32.250003.210.325',(#325),#561);
#325=AXIS2_PLACEMENT_3D('',#481,#377,#378);
#326=AXIS2_PLACEMENT_3D('',#482,#379,#380);
#327=AXIS2_PLACEMENT_3D('',#483,#381,#382);
#328=AXIS2_PLACEMENT_3D('',#485,#383,#384);
#329=AXIS2_PLACEMENT_3D('',#487,#385,#386);
#330=AXIS2_PLACEMENT_3D('',#490,#387,#388);
#331=AXIS2_PLACEMENT_3D('',#491,#389,#390);
#332=AXIS2_PLACEMENT_3D('',#492,#391,#392);
#333=AXIS2_PLACEMENT_3D('',#494,#393,#394);
#334=AXIS2_PLACEMENT_3D('',#497,#395,#396);
#335=AXIS2_PLACEMENT_3D('',#498,#397,#398);
#336=AXIS2_PLACEMENT_3D('',#499,#399,#400);
#337=AXIS2_PLACEMENT_3D('',#501,#401,#402);
#338=AXIS2_PLACEMENT_3D('',#502,#403,#404);
#339=AXIS2_PLACEMENT_3D('',#504,#405,#406);
#340=AXIS2_PLACEMENT_3D('',#506,#407,#408);
#341=AXIS2_PLACEMENT_3D('',#507,#409,#410);
#342=AXIS2_PLACEMENT_3D('',#508,#411,#412);
#343=AXIS2_PLACEMENT_3D('',#509,#413,#414);
#344=AXIS2_PLACEMENT_3D('',#510,#415,#416);
#345=AXIS2_PLACEMENT_3D('',#511,#417,#418);
#346=AXIS2_PLACEMENT_3D('',#513,#419,#420);
#347=AXIS2_PLACEMENT_3D('',#515,#421,#422);
#348=AXIS2_PLACEMENT_3D('',#516,#423,#424);
#349=AXIS2_PLACEMENT_3D('',#518,#425,#426);
#350=AXIS2_PLACEMENT_3D('',#520,#427,#428);
#351=AXIS2_PLACEMENT_3D('',#521,#429,#430);
#352=AXIS2_PLACEMENT_3D('',#523,#431,#432);
#353=AXIS2_PLACEMENT_3D('',#525,#433,#434);
#354=AXIS2_PLACEMENT_3D('',#526,#435,#436);
#355=AXIS2_PLACEMENT_3D('',#528,#437,#438);
#356=AXIS2_PLACEMENT_3D('',#530,#439,#440);
#357=AXIS2_PLACEMENT_3D('',#531,#441,#442);
#358=AXIS2_PLACEMENT_3D('',#533,#443,#444);
#359=AXIS2_PLACEMENT_3D('',#535,#445,#446);
#360=AXIS2_PLACEMENT_3D('',#536,#447,#448);
#361=AXIS2_PLACEMENT_3D('',#538,#449,#450);
#362=AXIS2_PLACEMENT_3D('',#540,#451,#452);
#363=AXIS2_PLACEMENT_3D('',#541,#453,#454);
#364=AXIS2_PLACEMENT_3D('',#543,#455,#456);
#365=AXIS2_PLACEMENT_3D('',#544,#457,#458);
#366=AXIS2_PLACEMENT_3D('',#545,#459,#460);
#367=AXIS2_PLACEMENT_3D('',#547,#461,#462);
#368=AXIS2_PLACEMENT_3D('',#548,#463,#464);
#369=AXIS2_PLACEMENT_3D('',#549,#465,#466);
#370=AXIS2_PLACEMENT_3D('',#550,#467,#468);
#371=AXIS2_PLACEMENT_3D('',#552,#469,#470);
#372=AXIS2_PLACEMENT_3D('',#553,#471,#472);
#373=AXIS2_PLACEMENT_3D('',#554,#473,#474);
#374=AXIS2_PLACEMENT_3D('',#555,#475,#476);
#375=AXIS2_PLACEMENT_3D('',#556,#477,#478);
#376=AXIS2_PLACEMENT_3D('',#557,#479,#480);
#377=DIRECTION('',(0.,0.,1.));
#378=DIRECTION('',(1.,0.,0.));
#379=DIRECTION('',(-1.,0.,0.));
#380=DIRECTION('',(0.,0.,1.));
#381=DIRECTION('',(-1.,0.,0.));
#382=DIRECTION('',(0.,0.,1.));
#383=DIRECTION('',(-1.,0.,0.));
#384=DIRECTION('',(0.,0.,1.));
#385=DIRECTION('',(-0.707106781186548,0.,-0.707106781186547));
#386=DIRECTION('',(-0.707106781186547,0.,0.707106781186548));
#387=DIRECTION('',(-0.707106781186547,0.,0.707106781186548));
#388=DIRECTION('',(-0.707106781186548,0.,-0.707106781186547));
#389=DIRECTION('',(2.22044604925031E-16,0.,1.));
#390=DIRECTION('',(-1.,0.,-2.22044604925031E-16));
#391=DIRECTION('',(-2.22044604925031E-16,0.,-1.));
#392=DIRECTION('',(-1.,0.,-2.22044604925031E-16));
#393=DIRECTION('',(-0.707106781186547,0.,0.707106781186548));
#394=DIRECTION('',(0.707106781186548,0.,0.707106781186547));
#395=DIRECTION('',(-0.707106781186548,0.,-0.707106781186547));
#396=DIRECTION('',(-0.707106781186547,0.,0.707106781186548));
#397=DIRECTION('',(2.22044604925031E-16,0.,1.));
#398=DIRECTION('',(-1.,0.,-2.22044604925031E-16));
#399=DIRECTION('',(-2.22044604925031E-16,0.,-1.));
#400=DIRECTION('',(-1.,0.,-2.22044604925031E-16));
#401=DIRECTION('',(-1.,0.,0.));
#402=DIRECTION('',(0.,0.,1.));
#403=DIRECTION('',(-1.,0.,0.));
#404=DIRECTION('',(0.,0.,1.));
#405=DIRECTION('',(-1.,0.,0.));
#406=DIRECTION('',(0.,0.,1.));
#407=DIRECTION('',(-1.,0.,0.));
#408=DIRECTION('',(0.,0.,1.));
#409=DIRECTION('',(2.22044604925031E-16,0.,1.));
#410=DIRECTION('',(-1.,0.,-2.22044604925031E-16));
#411=DIRECTION('',(1.,0.,0.));
#412=DIRECTION('',(0.,0.,-1.));
#413=DIRECTION('',(0.,0.,1.));
#414=DIRECTION('',(1.,0.,0.));
#415=DIRECTION('',(1.,0.,0.));
#416=DIRECTION('',(0.,0.,-1.));
#417=DIRECTION('',(1.,0.,0.));
#418=DIRECTION('',(0.,0.,-1.));
#419=DIRECTION('',(1.,0.,0.));
#420=DIRECTION('',(0.,0.,-1.));
#421=DIRECTION('',(1.,0.,0.));
#422=DIRECTION('',(0.,0.,1.));
#423=DIRECTION('',(1.,0.,0.));
#424=DIRECTION('',(0.,0.,-1.));
#425=DIRECTION('',(1.,0.,0.));
#426=DIRECTION('',(0.,0.,-1.));
#427=DIRECTION('',(-1.,0.,0.));
#428=DIRECTION('',(0.,0.,1.));
#429=DIRECTION('',(-1.,0.,0.));
#430=DIRECTION('',(0.,0.,1.));
#431=DIRECTION('',(1.,0.,0.));
#432=DIRECTION('',(0.,0.,-1.));
#433=DIRECTION('',(1.,0.,0.));
#434=DIRECTION('',(0.,0.,-1.));
#435=DIRECTION('',(-1.,0.,0.));
#436=DIRECTION('',(0.,0.,1.));
#437=DIRECTION('',(-1.,0.,0.));
#438=DIRECTION('',(0.,0.,1.));
#439=DIRECTION('',(-1.,0.,0.));
#440=DIRECTION('',(0.,0.,1.));
#441=DIRECTION('',(-1.,0.,0.));
#442=DIRECTION('',(0.,0.,1.));
#443=DIRECTION('',(-1.,0.,0.));
#444=DIRECTION('',(0.,0.,1.));
#445=DIRECTION('',(-1.,0.,0.));
#446=DIRECTION('',(0.,0.,1.));
#447=DIRECTION('',(-1.,0.,0.));
#448=DIRECTION('',(0.,0.,1.));
#449=DIRECTION('',(-1.,0.,0.));
#450=DIRECTION('',(0.,0.,1.));
#451=DIRECTION('',(1.,0.,0.));
#452=DIRECTION('',(0.,0.,-1.));
#453=DIRECTION('',(-1.,0.,0.));
#454=DIRECTION('',(0.,0.,1.));
#455=DIRECTION('',(1.,0.,0.));
#456=DIRECTION('',(0.,0.,1.));
#457=DIRECTION('',(1.,0.,0.));
#458=DIRECTION('',(0.,0.,1.));
#459=DIRECTION('',(1.,0.,0.));
#460=DIRECTION('',(0.,0.,-1.));
#461=DIRECTION('',(-1.,0.,0.));
#462=DIRECTION('',(0.,0.,1.));
#463=DIRECTION('',(1.,0.,0.));
#464=DIRECTION('',(0.,0.,-1.));
#465=DIRECTION('',(1.,0.,0.));
#466=DIRECTION('',(0.,0.,1.));
#467=DIRECTION('',(-1.,0.,0.));
#468=DIRECTION('',(0.,0.,1.));
#469=DIRECTION('',(-1.,0.,0.));
#470=DIRECTION('',(0.,0.,1.));
#471=DIRECTION('',(1.,0.,0.));
#472=DIRECTION('',(0.,0.,-1.));
#473=DIRECTION('',(-1.,0.,0.));
#474=DIRECTION('',(0.,0.,1.));
#475=DIRECTION('',(-1.38777878078145E-17,4.27642353614752E-49,1.));
#476=DIRECTION('',(1.,-5.55111512312579E-17,1.38777878078145E-17));
#477=DIRECTION('',(2.30027736598708E-17,0.924224592736303,0.381849318686592));
#478=DIRECTION('',(-1.,2.7755575615629E-17,-6.93889390390726E-18));
#479=DIRECTION('',(-0.381849318686592,0.924224592736303,1.3155063569727E-16));
#480=DIRECTION('',(-3.44509284839767E-16,7.39557098644699E-32,-1.));
#481=CARTESIAN_POINT('',(0.,0.,0.));
#482=CARTESIAN_POINT('',(0.,0.,0.));
#483=CARTESIAN_POINT('',(-193.,0.,0.));
#484=CARTESIAN_POINT('',(-193.,0.,130.5));
#485=CARTESIAN_POINT('',(193.,0.,0.));
#486=CARTESIAN_POINT('',(193.,0.,130.5));
#487=CARTESIAN_POINT('',(-6.16297582203916E-30,0.,0.));
#488=CARTESIAN_POINT('',(-1.84889274661175E-29,-130.5,-5.55111512312578E-14));
#489=CARTESIAN_POINT('',(-1.84889274661175E-29,130.5,-5.55111512312578E-14));
#490=CARTESIAN_POINT('',(-6.16297582203916E-30,0.,0.));
#491=CARTESIAN_POINT('',(0.,0.,0.));
#492=CARTESIAN_POINT('',(-4.2854608750531E-14,0.,-193.));
#493=CARTESIAN_POINT('',(-136.5,0.,-193.));
#494=CARTESIAN_POINT('',(0.,0.,0.));
#495=CARTESIAN_POINT('',(0.,136.5,0.));
#496=CARTESIAN_POINT('',(3.30042312370212E-15,-136.5,-6.09855711842777E-14));
#497=CARTESIAN_POINT('',(0.,0.,0.));
#498=CARTESIAN_POINT('',(0.,0.,0.));
#499=CARTESIAN_POINT('',(-4.2854608750531E-14,0.,-193.));
#500=CARTESIAN_POINT('',(-130.5,0.,-193.));
#501=CARTESIAN_POINT('',(0.,0.,0.));
#502=CARTESIAN_POINT('',(-193.,0.,0.));
#503=CARTESIAN_POINT('',(-193.,0.,136.5));
#504=CARTESIAN_POINT('',(193.,0.,0.));
#505=CARTESIAN_POINT('',(193.,0.,136.5));
#506=CARTESIAN_POINT('',(193.,0.,130.5));
#507=CARTESIAN_POINT('',(-130.5,0.,-193.));
#508=CARTESIAN_POINT('',(-193.,0.,136.5));
#509=CARTESIAN_POINT('',(0.,0.,0.));
#510=CARTESIAN_POINT('',(30.5248444855661,0.,150.5));
#511=CARTESIAN_POINT('',(30.5248444855661,0.,0.));
#512=CARTESIAN_POINT('',(30.5248444855661,0.,-150.));
#513=CARTESIAN_POINT('',(30.5248444855661,0.,0.));
#514=CARTESIAN_POINT('',(30.5248444855661,0.,-131.));
#515=CARTESIAN_POINT('',(-60.,0.,0.));
#516=CARTESIAN_POINT('',(30.0248444855661,0.,0.));
#517=CARTESIAN_POINT('',(30.0248444855661,0.,-150.5));
#518=CARTESIAN_POINT('',(23.7852595619855,0.,0.));
#519=CARTESIAN_POINT('',(23.7852595619855,0.,-150.5));
#520=CARTESIAN_POINT('',(17.6809643704282,0.,0.));
#521=CARTESIAN_POINT('',(17.6809643704282,0.,0.));
#522=CARTESIAN_POINT('',(17.6809643704282,0.,139.5));
#523=CARTESIAN_POINT('',(18.6206569912141,0.,0.));
#524=CARTESIAN_POINT('',(18.6206569912141,0.,-140.157979856674));
#525=CARTESIAN_POINT('',(10.5248444855661,0.,0.));
#526=CARTESIAN_POINT('',(10.5248444855661,0.,0.));
#527=CARTESIAN_POINT('',(10.5248444855661,0.,138.5));
#528=CARTESIAN_POINT('',(11.5248444855661,0.,0.));
#529=CARTESIAN_POINT('',(11.5248444855661,0.,139.5));
#530=CARTESIAN_POINT('',(15.7248444855661,0.,0.));
#531=CARTESIAN_POINT('',(15.7248444855661,0.,0.));
#532=CARTESIAN_POINT('',(15.7248444855661,0.,130.5));
#533=CARTESIAN_POINT('',(15.524844485566,0.,0.));
#534=CARTESIAN_POINT('',(15.524844485566,0.,130.7));
#535=CARTESIAN_POINT('',(10.7248444855661,0.,0.));
#536=CARTESIAN_POINT('',(10.7248444855661,0.,0.));
#537=CARTESIAN_POINT('',(10.7248444855661,0.,136.5));
#538=CARTESIAN_POINT('',(10.5248444855661,0.,0.));
#539=CARTESIAN_POINT('',(10.5248444855661,0.,136.7));
#540=CARTESIAN_POINT('',(18.3811719086379,0.,0.));
#541=CARTESIAN_POINT('',(21.9058743204137,0.,0.));
#542=CARTESIAN_POINT('',(21.9058743204137,0.,149.184040286651));
#543=CARTESIAN_POINT('',(-60.,0.,0.));
#544=CARTESIAN_POINT('',(-60.,0.,0.));
#545=CARTESIAN_POINT('',(30.0248444855661,0.,0.));
#546=CARTESIAN_POINT('',(30.0248444855661,0.,-130.5));
#547=CARTESIAN_POINT('',(30.0248444855661,0.,0.));
#548=CARTESIAN_POINT('',(30.5248444855661,0.,0.));
#549=CARTESIAN_POINT('',(-60.,0.,0.));
#550=CARTESIAN_POINT('',(15.524844485566,0.,0.));
#551=CARTESIAN_POINT('',(15.524844485566,0.,136.5));
#552=CARTESIAN_POINT('',(15.524844485566,0.,130.5));
#553=CARTESIAN_POINT('',(23.7852595619855,0.,0.));
#554=CARTESIAN_POINT('',(10.5248444855661,0.,139.5));
#555=CARTESIAN_POINT('',(177.475155514434,8.61801990080013E-16,-2.15450497520003E-16));
#556=CARTESIAN_POINT('',(-177.475155514434,-4.30900995040008E-16,1.07725248760002E-16));
#557=CARTESIAN_POINT('',(-3.75061556795601E-14,1.03582453929029E-30,-177.475155514434));
#558=MECHANICAL_DESIGN_GEOMETRIC_PRESENTATION_REPRESENTATION('',(#301,#302),
#559);
#559=(
GEOMETRIC_REPRESENTATION_CONTEXT(3)
GLOBAL_UNCERTAINTY_ASSIGNED_CONTEXT((#562))
GLOBAL_UNIT_ASSIGNED_CONTEXT((#567,#566,#565))
REPRESENTATION_CONTEXT('33.250003.260.325','TOP_LEVEL_ASSEMBLY_PART')
);
#560=(
GEOMETRIC_REPRESENTATION_CONTEXT(3)
GLOBAL_UNCERTAINTY_ASSIGNED_CONTEXT((#563))
GLOBAL_UNIT_ASSIGNED_CONTEXT((#567,#566,#565))
REPRESENTATION_CONTEXT('33.250003.260.325-Rohr','COMPONENT_PART')
);
#561=(
GEOMETRIC_REPRESENTATION_CONTEXT(3)
GLOBAL_UNCERTAINTY_ASSIGNED_CONTEXT((#564))
GLOBAL_UNIT_ASSIGNED_CONTEXT((#567,#566,#565))
REPRESENTATION_CONTEXT('32.250003.210.325','COMPONENT_PART')
);
#562=UNCERTAINTY_MEASURE_WITH_UNIT(LENGTH_MEASURE(0.005),#567,
'DISTANCE_ACCURACY_VALUE','Maximum Tolerance applied to model');
#563=UNCERTAINTY_MEASURE_WITH_UNIT(LENGTH_MEASURE(0.005),#567,
'DISTANCE_ACCURACY_VALUE','Maximum Tolerance applied to model');
#564=UNCERTAINTY_MEASURE_WITH_UNIT(LENGTH_MEASURE(0.005),#567,
'DISTANCE_ACCURACY_VALUE','Maximum Tolerance applied to model');
#565=(
NAMED_UNIT(*)
SI_UNIT($,.STERADIAN.)
SOLID_ANGLE_UNIT()
);
#566=(
NAMED_UNIT(*)
PLANE_ANGLE_UNIT()
SI_UNIT($,.RADIAN.)
);
#567=(
LENGTH_UNIT()
NAMED_UNIT(*)
SI_UNIT(.MILLI.,.METRE.)
);
#568=PRODUCT_DEFINITION_SHAPE('','',#575);
#569=PRODUCT_DEFINITION_SHAPE('','',#576);
#570=PRODUCT_DEFINITION_SHAPE(' ','NAUO PRDDFN',#30);
#571=PRODUCT_DEFINITION_SHAPE('','',#577);
#572=PRODUCT_DEFINITION_SHAPE(' ','NAUO PRDDFN',#31);
#573=PRODUCT_DEFINITION_SHAPE(' ','NAUO PRDDFN',#32);
#574=PRODUCT_DEFINITION_SHAPE(' ','NAUO PRDDFN',#33);
#575=PRODUCT_DEFINITION('','',#581,#578);
#576=PRODUCT_DEFINITION('','',#582,#579);
#577=PRODUCT_DEFINITION('','',#583,#580);
#578=PRODUCT_DEFINITION_CONTEXT('',#597,'design');
#579=PRODUCT_DEFINITION_CONTEXT('',#597,'design');
#580=PRODUCT_DEFINITION_CONTEXT('',#597,'design');
#581=PRODUCT_DEFINITION_FORMATION_WITH_SPECIFIED_SOURCE('','',#587,
 .NOT_KNOWN.);
#582=PRODUCT_DEFINITION_FORMATION_WITH_SPECIFIED_SOURCE('','',#588,
 .NOT_KNOWN.);
#583=PRODUCT_DEFINITION_FORMATION_WITH_SPECIFIED_SOURCE('','',#589,
 .NOT_KNOWN.);
#584=PRODUCT_RELATED_PRODUCT_CATEGORY('','',(#587));
#585=PRODUCT_RELATED_PRODUCT_CATEGORY('','',(#588));
#586=PRODUCT_RELATED_PRODUCT_CATEGORY('','',(#589));
#587=PRODUCT('33.250003.260.325','33.250003.260.325',
'33.250003.260.325',(#593));
#588=PRODUCT('33.250003.260.325-Rohr','33.250003.260.325-Rohr',
'33.250003.260.325-Rohr',(#594));
#589=PRODUCT('32.250003.210.325','32.250003.210.325',
'32.250003.210.325',(#595));
#590=PRODUCT_CATEGORY('','');
#591=PRODUCT_CATEGORY('','');
#592=PRODUCT_CATEGORY('','');
#593=PRODUCT_CONTEXT('',#597,'mechanical');
#594=PRODUCT_CONTEXT('',#597,'mechanical');
#595=PRODUCT_CONTEXT('',#597,'mechanical');
#596=APPLICATION_PROTOCOL_DEFINITION('international standard',
'automotive_design',2010,#597);
#597=APPLICATION_CONTEXT(
'core data for automotive mechanical design processes');
ENDSEC;
END-ISO-10303-21;
