ISO-10303-21;
HEADER;
/* Generated by software containing ST-Developer
 * from STEP Tools, Inc. (www.steptools.com) 
 */
/* OPTION: strings as raw bytes, not using required /X/ escapes */

FILE_DESCRIPTION(
/* description */ (''),
/* implementation_level */ '2;1');

FILE_NAME(
/* name */ '33.125008.251.812',
/* time_stamp */ '2019-06-17T08:46:27+02:00',
/* author */ ('Murat Coskun Bicak'),
/* organization */ ('Evac AG'),
/* preprocessor_version */ 'ST-DEVELOPER v16.7',
/* originating_system */ 'DEX',
/* authorisation */ $);

FILE_SCHEMA (('AUTOMOTIVE_DESIGN {1 0 10303 214 3 1 1}'));
ENDSEC;

DATA;
#10=PROPERTY_DEFINITION_REPRESENTATION(#14,#12);
#11=PROPERTY_DEFINITION_REPRESENTATION(#15,#13);
#12=REPRESENTATION('',(#16),#357);
#13=REPRESENTATION('',(#17),#357);
#14=PROPERTY_DEFINITION('pmi validation property','',#362);
#15=PROPERTY_DEFINITION('pmi validation property','',#362);
#16=VALUE_REPRESENTATION_ITEM('number of annotations',COUNT_MEASURE(0.));
#17=VALUE_REPRESENTATION_ITEM('number of views',COUNT_MEASURE(0.));
#18=SHAPE_REPRESENTATION_RELATIONSHIP('','',#207,#19);
#19=ADVANCED_BREP_SHAPE_REPRESENTATION('',(#205),#357);
#20=TOROIDAL_SURFACE('',#223,70.5,3.);
#21=TOROIDAL_SURFACE('',#224,78.5,2.);
#22=TOROIDAL_SURFACE('',#238,70.5,3.);
#23=TOROIDAL_SURFACE('',#239,78.5,2.);
#24=PLANE('',#218);
#25=PLANE('',#233);
#26=CONICAL_SURFACE('',#212,80.5,1.22173047639603);
#27=CONICAL_SURFACE('',#225,80.5,0.785398163397448);
#28=CONICAL_SURFACE('',#228,80.5,1.22173047639603);
#29=CONICAL_SURFACE('',#240,80.5,0.785398163397448);
#30=ELLIPSE('',#211,95.459415460184,67.5);
#31=ELLIPSE('',#217,88.3883476483185,62.5);
#32=ORIENTED_EDGE('',*,*,#64,.T.);
#33=ORIENTED_EDGE('',*,*,#65,.F.);
#34=ORIENTED_EDGE('',*,*,#66,.T.);
#35=ORIENTED_EDGE('',*,*,#67,.T.);
#36=ORIENTED_EDGE('',*,*,#68,.F.);
#37=ORIENTED_EDGE('',*,*,#69,.F.);
#38=ORIENTED_EDGE('',*,*,#70,.T.);
#39=ORIENTED_EDGE('',*,*,#68,.T.);
#40=ORIENTED_EDGE('',*,*,#71,.T.);
#41=ORIENTED_EDGE('',*,*,#72,.T.);
#42=ORIENTED_EDGE('',*,*,#67,.F.);
#43=ORIENTED_EDGE('',*,*,#64,.F.);
#44=ORIENTED_EDGE('',*,*,#72,.F.);
#45=ORIENTED_EDGE('',*,*,#66,.F.);
#46=ORIENTED_EDGE('',*,*,#70,.F.);
#47=ORIENTED_EDGE('',*,*,#71,.F.);
#48=ORIENTED_EDGE('',*,*,#73,.F.);
#49=ORIENTED_EDGE('',*,*,#65,.T.);
#50=ORIENTED_EDGE('',*,*,#74,.F.);
#51=ORIENTED_EDGE('',*,*,#75,.F.);
#52=ORIENTED_EDGE('',*,*,#76,.T.);
#53=ORIENTED_EDGE('',*,*,#69,.T.);
#54=ORIENTED_EDGE('',*,*,#77,.F.);
#55=ORIENTED_EDGE('',*,*,#76,.F.);
#56=ORIENTED_EDGE('',*,*,#78,.F.);
#57=ORIENTED_EDGE('',*,*,#79,.F.);
#58=ORIENTED_EDGE('',*,*,#75,.T.);
#59=ORIENTED_EDGE('',*,*,#73,.T.);
#60=ORIENTED_EDGE('',*,*,#79,.T.);
#61=ORIENTED_EDGE('',*,*,#74,.T.);
#62=ORIENTED_EDGE('',*,*,#77,.T.);
#63=ORIENTED_EDGE('',*,*,#78,.T.);
#64=EDGE_CURVE('',#80,#80,#96,.T.);
#65=EDGE_CURVE('',#81,#81,#30,.T.);
#66=EDGE_CURVE('',#82,#82,#97,.T.);
#67=EDGE_CURVE('',#83,#83,#98,.T.);
#68=EDGE_CURVE('',#84,#84,#99,.T.);
#69=EDGE_CURVE('',#85,#85,#31,.F.);
#70=EDGE_CURVE('',#86,#86,#100,.F.);
#71=EDGE_CURVE('',#87,#87,#101,.T.);
#72=EDGE_CURVE('',#88,#88,#102,.T.);
#73=EDGE_CURVE('',#89,#89,#103,.T.);
#74=EDGE_CURVE('',#90,#90,#104,.T.);
#75=EDGE_CURVE('',#91,#91,#105,.T.);
#76=EDGE_CURVE('',#92,#92,#106,.T.);
#77=EDGE_CURVE('',#93,#93,#107,.F.);
#78=EDGE_CURVE('',#94,#94,#108,.T.);
#79=EDGE_CURVE('',#95,#95,#109,.T.);
#80=VERTEX_POINT('',#310);
#81=VERTEX_POINT('',#312);
#82=VERTEX_POINT('',#315);
#83=VERTEX_POINT('',#317);
#84=VERTEX_POINT('',#320);
#85=VERTEX_POINT('',#322);
#86=VERTEX_POINT('',#325);
#87=VERTEX_POINT('',#328);
#88=VERTEX_POINT('',#330);
#89=VERTEX_POINT('',#336);
#90=VERTEX_POINT('',#339);
#91=VERTEX_POINT('',#341);
#92=VERTEX_POINT('',#344);
#93=VERTEX_POINT('',#347);
#94=VERTEX_POINT('',#350);
#95=VERTEX_POINT('',#352);
#96=CIRCLE('',#210,67.5);
#97=CIRCLE('',#213,79.1840402866513);
#98=CIRCLE('',#214,69.473939570023);
#99=CIRCLE('',#216,62.5);
#100=CIRCLE('',#219,80.);
#101=CIRCLE('',#221,80.5);
#102=CIRCLE('',#222,80.5);
#103=CIRCLE('',#227,67.5);
#104=CIRCLE('',#229,79.1840402866513);
#105=CIRCLE('',#230,69.473939570023);
#106=CIRCLE('',#232,62.5);
#107=CIRCLE('',#234,80.);
#108=CIRCLE('',#236,80.5);
#109=CIRCLE('',#237,80.5);
#110=EDGE_LOOP('',(#32));
#111=EDGE_LOOP('',(#33));
#112=EDGE_LOOP('',(#34));
#113=EDGE_LOOP('',(#35));
#114=EDGE_LOOP('',(#36));
#115=EDGE_LOOP('',(#37));
#116=EDGE_LOOP('',(#38));
#117=EDGE_LOOP('',(#39));
#118=EDGE_LOOP('',(#40));
#119=EDGE_LOOP('',(#41));
#120=EDGE_LOOP('',(#42));
#121=EDGE_LOOP('',(#43));
#122=EDGE_LOOP('',(#44));
#123=EDGE_LOOP('',(#45));
#124=EDGE_LOOP('',(#46));
#125=EDGE_LOOP('',(#47));
#126=EDGE_LOOP('',(#48));
#127=EDGE_LOOP('',(#49));
#128=EDGE_LOOP('',(#50));
#129=EDGE_LOOP('',(#51));
#130=EDGE_LOOP('',(#52));
#131=EDGE_LOOP('',(#53));
#132=EDGE_LOOP('',(#54));
#133=EDGE_LOOP('',(#55));
#134=EDGE_LOOP('',(#56));
#135=EDGE_LOOP('',(#57));
#136=EDGE_LOOP('',(#58));
#137=EDGE_LOOP('',(#59));
#138=EDGE_LOOP('',(#60));
#139=EDGE_LOOP('',(#61));
#140=EDGE_LOOP('',(#62));
#141=EDGE_LOOP('',(#63));
#142=FACE_BOUND('',#110,.T.);
#143=FACE_BOUND('',#111,.T.);
#144=FACE_BOUND('',#112,.T.);
#145=FACE_BOUND('',#113,.T.);
#146=FACE_BOUND('',#114,.T.);
#147=FACE_BOUND('',#115,.T.);
#148=FACE_BOUND('',#116,.T.);
#149=FACE_BOUND('',#117,.T.);
#150=FACE_BOUND('',#118,.T.);
#151=FACE_BOUND('',#119,.T.);
#152=FACE_BOUND('',#120,.T.);
#153=FACE_BOUND('',#121,.T.);
#154=FACE_BOUND('',#122,.T.);
#155=FACE_BOUND('',#123,.T.);
#156=FACE_BOUND('',#124,.T.);
#157=FACE_BOUND('',#125,.T.);
#158=FACE_BOUND('',#126,.T.);
#159=FACE_BOUND('',#127,.T.);
#160=FACE_BOUND('',#128,.T.);
#161=FACE_BOUND('',#129,.T.);
#162=FACE_BOUND('',#130,.T.);
#163=FACE_BOUND('',#131,.T.);
#164=FACE_BOUND('',#132,.T.);
#165=FACE_BOUND('',#133,.T.);
#166=FACE_BOUND('',#134,.T.);
#167=FACE_BOUND('',#135,.T.);
#168=FACE_BOUND('',#136,.T.);
#169=FACE_BOUND('',#137,.T.);
#170=FACE_BOUND('',#138,.T.);
#171=FACE_BOUND('',#139,.T.);
#172=FACE_BOUND('',#140,.T.);
#173=FACE_BOUND('',#141,.T.);
#174=CYLINDRICAL_SURFACE('',#209,67.5);
#175=CYLINDRICAL_SURFACE('',#215,62.5);
#176=CYLINDRICAL_SURFACE('',#220,80.5);
#177=CYLINDRICAL_SURFACE('',#226,67.5);
#178=CYLINDRICAL_SURFACE('',#231,62.5);
#179=CYLINDRICAL_SURFACE('',#235,80.5);
#180=ADVANCED_FACE('',(#142,#143),#174,.T.);
#181=ADVANCED_FACE('',(#144,#145),#26,.T.);
#182=ADVANCED_FACE('',(#146,#147),#175,.F.);
#183=ADVANCED_FACE('',(#148,#149),#24,.F.);
#184=ADVANCED_FACE('',(#150,#151),#176,.T.);
#185=ADVANCED_FACE('',(#152,#153),#20,.F.);
#186=ADVANCED_FACE('',(#154,#155),#21,.T.);
#187=ADVANCED_FACE('',(#156,#157),#27,.T.);
#188=ADVANCED_FACE('',(#158,#159),#177,.T.);
#189=ADVANCED_FACE('',(#160,#161),#28,.T.);
#190=ADVANCED_FACE('',(#162,#163),#178,.F.);
#191=ADVANCED_FACE('',(#164,#165),#25,.F.);
#192=ADVANCED_FACE('',(#166,#167),#179,.T.);
#193=ADVANCED_FACE('',(#168,#169),#22,.F.);
#194=ADVANCED_FACE('',(#170,#171),#23,.T.);
#195=ADVANCED_FACE('',(#172,#173),#29,.T.);
#196=CLOSED_SHELL('',(#180,#181,#182,#183,#184,#185,#186,#187,#188,#189,
#190,#191,#192,#193,#194,#195));
#197=STYLED_ITEM('',(#198),#205);
#198=PRESENTATION_STYLE_ASSIGNMENT((#199));
#199=SURFACE_STYLE_USAGE(.BOTH.,#200);
#200=SURFACE_SIDE_STYLE('',(#201));
#201=SURFACE_STYLE_FILL_AREA(#202);
#202=FILL_AREA_STYLE('',(#203));
#203=FILL_AREA_STYLE_COLOUR('',#204);
#204=COLOUR_RGB('',0.506983280181885,0.531564235687256,0.550000011920929);
#205=MANIFOLD_SOLID_BREP('',#196);
#206=SHAPE_DEFINITION_REPRESENTATION(#362,#207);
#207=SHAPE_REPRESENTATION('33.125008.251.812',(#208),#357);
#208=AXIS2_PLACEMENT_3D('',#307,#241,#242);
#209=AXIS2_PLACEMENT_3D('',#308,#243,#244);
#210=AXIS2_PLACEMENT_3D('',#309,#245,#246);
#211=AXIS2_PLACEMENT_3D('',#311,#247,#248);
#212=AXIS2_PLACEMENT_3D('',#313,#249,#250);
#213=AXIS2_PLACEMENT_3D('',#314,#251,#252);
#214=AXIS2_PLACEMENT_3D('',#316,#253,#254);
#215=AXIS2_PLACEMENT_3D('',#318,#255,#256);
#216=AXIS2_PLACEMENT_3D('',#319,#257,#258);
#217=AXIS2_PLACEMENT_3D('',#321,#259,#260);
#218=AXIS2_PLACEMENT_3D('',#323,#261,#262);
#219=AXIS2_PLACEMENT_3D('',#324,#263,#264);
#220=AXIS2_PLACEMENT_3D('',#326,#265,#266);
#221=AXIS2_PLACEMENT_3D('',#327,#267,#268);
#222=AXIS2_PLACEMENT_3D('',#329,#269,#270);
#223=AXIS2_PLACEMENT_3D('',#331,#271,#272);
#224=AXIS2_PLACEMENT_3D('',#332,#273,#274);
#225=AXIS2_PLACEMENT_3D('',#333,#275,#276);
#226=AXIS2_PLACEMENT_3D('',#334,#277,#278);
#227=AXIS2_PLACEMENT_3D('',#335,#279,#280);
#228=AXIS2_PLACEMENT_3D('',#337,#281,#282);
#229=AXIS2_PLACEMENT_3D('',#338,#283,#284);
#230=AXIS2_PLACEMENT_3D('',#340,#285,#286);
#231=AXIS2_PLACEMENT_3D('',#342,#287,#288);
#232=AXIS2_PLACEMENT_3D('',#343,#289,#290);
#233=AXIS2_PLACEMENT_3D('',#345,#291,#292);
#234=AXIS2_PLACEMENT_3D('',#346,#293,#294);
#235=AXIS2_PLACEMENT_3D('',#348,#295,#296);
#236=AXIS2_PLACEMENT_3D('',#349,#297,#298);
#237=AXIS2_PLACEMENT_3D('',#351,#299,#300);
#238=AXIS2_PLACEMENT_3D('',#353,#301,#302);
#239=AXIS2_PLACEMENT_3D('',#354,#303,#304);
#240=AXIS2_PLACEMENT_3D('',#355,#305,#306);
#241=DIRECTION('',(0.,0.,1.));
#242=DIRECTION('',(1.,0.,0.));
#243=DIRECTION('',(-1.,0.,0.));
#244=DIRECTION('',(0.,0.,1.));
#245=DIRECTION('',(-1.,0.,0.));
#246=DIRECTION('',(0.,0.,1.));
#247=DIRECTION('',(-0.707106781186547,0.,-0.707106781186548));
#248=DIRECTION('',(-0.707106781186548,0.,0.707106781186547));
#249=DIRECTION('',(1.,0.,0.));
#250=DIRECTION('',(0.,0.,-1.));
#251=DIRECTION('',(-1.,0.,0.));
#252=DIRECTION('',(0.,0.,1.));
#253=DIRECTION('',(1.,0.,0.));
#254=DIRECTION('',(0.,0.,-1.));
#255=DIRECTION('',(-1.,0.,0.));
#256=DIRECTION('',(0.,0.,1.));
#257=DIRECTION('',(-1.,0.,0.));
#258=DIRECTION('',(0.,0.,1.));
#259=DIRECTION('',(-0.707106781186547,0.,-0.707106781186548));
#260=DIRECTION('',(-0.707106781186548,0.,0.707106781186547));
#261=DIRECTION('',(-1.,0.,0.));
#262=DIRECTION('',(0.,0.,1.));
#263=DIRECTION('',(-1.,0.,0.));
#264=DIRECTION('',(0.,0.,1.));
#265=DIRECTION('',(-1.,0.,0.));
#266=DIRECTION('',(0.,0.,1.));
#267=DIRECTION('',(-1.,0.,0.));
#268=DIRECTION('',(0.,0.,1.));
#269=DIRECTION('',(1.,0.,0.));
#270=DIRECTION('',(0.,0.,-1.));
#271=DIRECTION('',(-1.,0.,0.));
#272=DIRECTION('',(0.,0.,1.));
#273=DIRECTION('',(1.,0.,0.));
#274=DIRECTION('',(0.,0.,-1.));
#275=DIRECTION('',(-1.,0.,0.));
#276=DIRECTION('',(0.,0.,1.));
#277=DIRECTION('',(-7.77156117237609E-16,0.,1.));
#278=DIRECTION('',(-1.,0.,-1.11022302462516E-15));
#279=DIRECTION('',(7.77156117237609E-16,0.,-1.));
#280=DIRECTION('',(-1.,0.,-1.11022302462516E-15));
#281=DIRECTION('',(7.77156117237609E-16,0.,-1.));
#282=DIRECTION('',(1.,0.,1.11022302462516E-15));
#283=DIRECTION('',(7.77156117237609E-16,0.,-1.));
#284=DIRECTION('',(-1.,0.,-1.11022302462516E-15));
#285=DIRECTION('',(-7.77156117237609E-16,0.,1.));
#286=DIRECTION('',(1.,0.,1.11022302462516E-15));
#287=DIRECTION('',(-7.77156117237609E-16,0.,1.));
#288=DIRECTION('',(-1.,0.,-1.11022302462516E-15));
#289=DIRECTION('',(7.77156117237609E-16,0.,-1.));
#290=DIRECTION('',(-1.,0.,-1.11022302462516E-15));
#291=DIRECTION('',(-7.77156117237609E-16,0.,1.));
#292=DIRECTION('',(-1.,0.,-1.11022302462516E-15));
#293=DIRECTION('',(7.77156117237609E-16,0.,-1.));
#294=DIRECTION('',(-1.,0.,-1.11022302462516E-15));
#295=DIRECTION('',(-7.77156117237609E-16,0.,1.));
#296=DIRECTION('',(-1.,0.,-1.11022302462516E-15));
#297=DIRECTION('',(7.77156117237609E-16,0.,-1.));
#298=DIRECTION('',(-1.,0.,-1.11022302462516E-15));
#299=DIRECTION('',(-7.77156117237609E-16,0.,1.));
#300=DIRECTION('',(1.,0.,1.11022302462516E-15));
#301=DIRECTION('',(-7.77156117237609E-16,0.,1.));
#302=DIRECTION('',(-1.,0.,-1.11022302462516E-15));
#303=DIRECTION('',(7.77156117237609E-16,0.,-1.));
#304=DIRECTION('',(1.,0.,1.11022302462516E-15));
#305=DIRECTION('',(-7.77156117237609E-16,0.,1.));
#306=DIRECTION('',(-1.,0.,-1.11022302462516E-15));
#307=CARTESIAN_POINT('',(0.,0.,0.));
#308=CARTESIAN_POINT('',(0.,0.,0.));
#309=CARTESIAN_POINT('',(103.210356366879,0.,0.));
#310=CARTESIAN_POINT('',(103.210356366879,0.,67.5));
#311=CARTESIAN_POINT('',(5.88784672006416E-14,0.,0.));
#312=CARTESIAN_POINT('',(-67.5,0.,67.5));
#313=CARTESIAN_POINT('',(110.042592026968,0.,0.));
#314=CARTESIAN_POINT('',(109.563621861816,0.,0.));
#315=CARTESIAN_POINT('',(109.563621861816,0.,79.1840402866513));
#316=CARTESIAN_POINT('',(106.029434229236,0.,0.));
#317=CARTESIAN_POINT('',(106.029434229236,0.,-69.473939570023));
#318=CARTESIAN_POINT('',(0.,0.,0.));
#319=CARTESIAN_POINT('',(118.,0.,0.));
#320=CARTESIAN_POINT('',(118.,0.,62.5));
#321=CARTESIAN_POINT('',(5.88784672006416E-14,0.,0.));
#322=CARTESIAN_POINT('',(-62.5,0.,62.5));
#323=CARTESIAN_POINT('',(118.,0.,62.5));
#324=CARTESIAN_POINT('',(118.,0.,0.));
#325=CARTESIAN_POINT('',(118.,0.,80.));
#326=CARTESIAN_POINT('',(0.,0.,0.));
#327=CARTESIAN_POINT('',(117.5,0.,0.));
#328=CARTESIAN_POINT('',(117.5,0.,80.5));
#329=CARTESIAN_POINT('',(111.443007103388,0.,0.));
#330=CARTESIAN_POINT('',(111.443007103388,0.,-80.5));
#331=CARTESIAN_POINT('',(103.210356366879,0.,0.));
#332=CARTESIAN_POINT('',(111.443007103388,0.,0.));
#333=CARTESIAN_POINT('',(117.5,0.,0.));
#334=CARTESIAN_POINT('',(0.,0.,0.));
#335=CARTESIAN_POINT('',(8.02105598127934E-14,0.,-103.210356366879));
#336=CARTESIAN_POINT('',(-67.4999999999999,0.,-103.210356366879));
#337=CARTESIAN_POINT('',(8.55202735504411E-14,0.,-110.042592026968));
#338=CARTESIAN_POINT('',(8.51480389566186E-14,0.,-109.563621861816));
#339=CARTESIAN_POINT('',(-79.1840402866513,0.,-109.563621861816));
#340=CARTESIAN_POINT('',(8.24014234184939E-14,0.,-106.029434229236));
#341=CARTESIAN_POINT('',(69.4739395700231,0.,-106.029434229236));
#342=CARTESIAN_POINT('',(0.,0.,0.));
#343=CARTESIAN_POINT('',(9.17044218340379E-14,0.,-118.));
#344=CARTESIAN_POINT('',(-62.4999999999999,0.,-118.));
#345=CARTESIAN_POINT('',(-62.4999999999999,0.,-118.));
#346=CARTESIAN_POINT('',(9.17044218340379E-14,0.,-118.));
#347=CARTESIAN_POINT('',(-79.9999999999999,0.,-118.));
#348=CARTESIAN_POINT('',(0.,0.,0.));
#349=CARTESIAN_POINT('',(9.13158437754191E-14,0.,-117.5));
#350=CARTESIAN_POINT('',(-80.4999999999999,0.,-117.5));
#351=CARTESIAN_POINT('',(8.66086146937522E-14,0.,-111.443007103388));
#352=CARTESIAN_POINT('',(80.5000000000001,0.,-111.443007103388));
#353=CARTESIAN_POINT('',(8.02105598127934E-14,0.,-103.210356366879));
#354=CARTESIAN_POINT('',(8.66086146937522E-14,0.,-111.443007103388));
#355=CARTESIAN_POINT('',(9.13158437754191E-14,0.,-117.5));
#356=MECHANICAL_DESIGN_GEOMETRIC_PRESENTATION_REPRESENTATION('',(#197),
#357);
#357=(
GEOMETRIC_REPRESENTATION_CONTEXT(3)
GLOBAL_UNCERTAINTY_ASSIGNED_CONTEXT((#358))
GLOBAL_UNIT_ASSIGNED_CONTEXT((#361,#360,#359))
REPRESENTATION_CONTEXT('33.125008.251.812','TOP_LEVEL_ASSEMBLY_PART')
);
#358=UNCERTAINTY_MEASURE_WITH_UNIT(LENGTH_MEASURE(0.005),#361,
'DISTANCE_ACCURACY_VALUE','Maximum Tolerance applied to model');
#359=(
NAMED_UNIT(*)
SI_UNIT($,.STERADIAN.)
SOLID_ANGLE_UNIT()
);
#360=(
NAMED_UNIT(*)
PLANE_ANGLE_UNIT()
SI_UNIT($,.RADIAN.)
);
#361=(
LENGTH_UNIT()
NAMED_UNIT(*)
SI_UNIT(.MILLI.,.METRE.)
);
#362=PRODUCT_DEFINITION_SHAPE('','',#363);
#363=PRODUCT_DEFINITION('','',#365,#364);
#364=PRODUCT_DEFINITION_CONTEXT('',#371,'design');
#365=PRODUCT_DEFINITION_FORMATION_WITH_SPECIFIED_SOURCE('','',#367,
 .NOT_KNOWN.);
#366=PRODUCT_RELATED_PRODUCT_CATEGORY('','',(#367));
#367=PRODUCT('33.125008.251.812','33.125008.251.812',
'33.125008.251.812',(#369));
#368=PRODUCT_CATEGORY('','');
#369=PRODUCT_CONTEXT('',#371,'mechanical');
#370=APPLICATION_PROTOCOL_DEFINITION('international standard',
'automotive_design',2010,#371);
#371=APPLICATION_CONTEXT(
'core data for automotive mechanical design processes');
ENDSEC;
END-ISO-10303-21;
