ISO-10303-21;
HEADER;
/* Generated by software containing ST-Developer
 * from STEP Tools, Inc. (www.steptools.com) 
 */
/* OPTION: strings as raw bytes, not using required /X/ escapes */

FILE_DESCRIPTION(
/* description */ (''),
/* implementation_level */ '2;1');

FILE_NAME(
/* name */ '33.080008.271.808',
/* time_stamp */ '2019-06-17T10:39:40+02:00',
/* author */ ('Murat Coskun Bicak'),
/* organization */ ('Evac AG'),
/* preprocessor_version */ 'ST-DEVELOPER v16.7',
/* originating_system */ 'DEX',
/* authorisation */ $);

FILE_SCHEMA (('AUTOMOTIVE_DESIGN {1 0 10303 214 3 1 1}'));
ENDSEC;

DATA;
#10=PROPERTY_DEFINITION_REPRESENTATION(#14,#12);
#11=PROPERTY_DEFINITION_REPRESENTATION(#15,#13);
#12=REPRESENTATION('',(#16),#709);
#13=REPRESENTATION('',(#17),#709);
#14=PROPERTY_DEFINITION('pmi validation property','',#714);
#15=PROPERTY_DEFINITION('pmi validation property','',#714);
#16=VALUE_REPRESENTATION_ITEM('number of annotations',COUNT_MEASURE(0.));
#17=VALUE_REPRESENTATION_ITEM('number of views',COUNT_MEASURE(0.));
#18=SHAPE_REPRESENTATION_RELATIONSHIP('','',#399,#19);
#19=ADVANCED_BREP_SHAPE_REPRESENTATION('',(#397),#709);
#20=TOROIDAL_SURFACE('',#427,55.,2.);
#21=TOROIDAL_SURFACE('',#428,47.5,3.);
#22=TOROIDAL_SURFACE('',#438,55.,2.);
#23=TOROIDAL_SURFACE('',#439,47.5,3.);
#24=TOROIDAL_SURFACE('',#440,47.5,3.);
#25=TOROIDAL_SURFACE('',#443,55.,2.);
#26=TOROIDAL_SURFACE('',#452,47.5,3.);
#27=TOROIDAL_SURFACE('',#455,55.,2.);
#28=PLANE('',#424);
#29=PLANE('',#435);
#30=PLANE('',#449);
#31=PLANE('',#461);
#32=CONICAL_SURFACE('',#418,44.5,1.22173047639603);
#33=CONICAL_SURFACE('',#426,57.,0.785398163397448);
#34=CONICAL_SURFACE('',#429,44.5,1.22173047639603);
#35=CONICAL_SURFACE('',#437,57.,0.785398163397448);
#36=CONICAL_SURFACE('',#446,57.,0.785398163397448);
#37=CONICAL_SURFACE('',#451,44.5,1.22173047639603);
#38=CONICAL_SURFACE('',#458,57.,0.785398163397448);
#39=CONICAL_SURFACE('',#464,44.5,1.22173047639603);
#40=CIRCLE('',#404,41.5);
#41=CIRCLE('',#408,41.5);
#42=CIRCLE('',#412,44.5);
#43=CIRCLE('',#415,44.5);
#44=CIRCLE('',#417,41.5);
#45=CIRCLE('',#419,46.473939570023);
#46=CIRCLE('',#420,55.6840402866513);
#47=CIRCLE('',#422,57.);
#48=CIRCLE('',#423,57.);
#49=CIRCLE('',#425,56.5);
#50=CIRCLE('',#430,46.473939570023);
#51=CIRCLE('',#431,55.6840402866513);
#52=CIRCLE('',#433,57.);
#53=CIRCLE('',#434,57.);
#54=CIRCLE('',#436,56.5);
#55=CIRCLE('',#441,46.473939570023);
#56=CIRCLE('',#442,44.5);
#57=CIRCLE('',#444,57.);
#58=CIRCLE('',#445,55.6840402866513);
#59=CIRCLE('',#447,56.5);
#60=CIRCLE('',#448,57.);
#61=CIRCLE('',#453,46.473939570023);
#62=CIRCLE('',#454,44.5);
#63=CIRCLE('',#456,57.);
#64=CIRCLE('',#457,55.6840402866513);
#65=CIRCLE('',#459,56.5);
#66=CIRCLE('',#460,57.);
#67=CIRCLE('',#462,41.5);
#68=ORIENTED_EDGE('',*,*,#140,.F.);
#69=ORIENTED_EDGE('',*,*,#141,.T.);
#70=ORIENTED_EDGE('',*,*,#142,.F.);
#71=ORIENTED_EDGE('',*,*,#143,.F.);
#72=ORIENTED_EDGE('',*,*,#144,.T.);
#73=ORIENTED_EDGE('',*,*,#145,.F.);
#74=ORIENTED_EDGE('',*,*,#146,.F.);
#75=ORIENTED_EDGE('',*,*,#147,.F.);
#76=ORIENTED_EDGE('',*,*,#148,.T.);
#77=ORIENTED_EDGE('',*,*,#149,.F.);
#78=ORIENTED_EDGE('',*,*,#147,.T.);
#79=ORIENTED_EDGE('',*,*,#150,.F.);
#80=ORIENTED_EDGE('',*,*,#151,.T.);
#81=ORIENTED_EDGE('',*,*,#144,.F.);
#82=ORIENTED_EDGE('',*,*,#141,.F.);
#83=ORIENTED_EDGE('',*,*,#152,.T.);
#84=ORIENTED_EDGE('',*,*,#153,.T.);
#85=ORIENTED_EDGE('',*,*,#154,.T.);
#86=ORIENTED_EDGE('',*,*,#155,.T.);
#87=ORIENTED_EDGE('',*,*,#156,.T.);
#88=ORIENTED_EDGE('',*,*,#145,.T.);
#89=ORIENTED_EDGE('',*,*,#156,.F.);
#90=ORIENTED_EDGE('',*,*,#155,.F.);
#91=ORIENTED_EDGE('',*,*,#154,.F.);
#92=ORIENTED_EDGE('',*,*,#153,.F.);
#93=ORIENTED_EDGE('',*,*,#152,.F.);
#94=ORIENTED_EDGE('',*,*,#148,.F.);
#95=ORIENTED_EDGE('',*,*,#157,.F.);
#96=ORIENTED_EDGE('',*,*,#158,.F.);
#97=ORIENTED_EDGE('',*,*,#159,.F.);
#98=ORIENTED_EDGE('',*,*,#160,.F.);
#99=ORIENTED_EDGE('',*,*,#161,.F.);
#100=ORIENTED_EDGE('',*,*,#151,.F.);
#101=ORIENTED_EDGE('',*,*,#161,.T.);
#102=ORIENTED_EDGE('',*,*,#160,.T.);
#103=ORIENTED_EDGE('',*,*,#159,.T.);
#104=ORIENTED_EDGE('',*,*,#158,.T.);
#105=ORIENTED_EDGE('',*,*,#157,.T.);
#106=ORIENTED_EDGE('',*,*,#150,.T.);
#107=ORIENTED_EDGE('',*,*,#162,.F.);
#108=ORIENTED_EDGE('',*,*,#163,.F.);
#109=ORIENTED_EDGE('',*,*,#164,.F.);
#110=ORIENTED_EDGE('',*,*,#165,.F.);
#111=ORIENTED_EDGE('',*,*,#166,.F.);
#112=ORIENTED_EDGE('',*,*,#167,.F.);
#113=ORIENTED_EDGE('',*,*,#166,.T.);
#114=ORIENTED_EDGE('',*,*,#142,.T.);
#115=ORIENTED_EDGE('',*,*,#164,.T.);
#116=ORIENTED_EDGE('',*,*,#167,.T.);
#117=ORIENTED_EDGE('',*,*,#162,.T.);
#118=ORIENTED_EDGE('',*,*,#165,.T.);
#119=ORIENTED_EDGE('',*,*,#168,.T.);
#120=ORIENTED_EDGE('',*,*,#169,.T.);
#121=ORIENTED_EDGE('',*,*,#170,.T.);
#122=ORIENTED_EDGE('',*,*,#171,.T.);
#123=ORIENTED_EDGE('',*,*,#172,.T.);
#124=ORIENTED_EDGE('',*,*,#173,.T.);
#125=ORIENTED_EDGE('',*,*,#172,.F.);
#126=ORIENTED_EDGE('',*,*,#174,.F.);
#127=ORIENTED_EDGE('',*,*,#170,.F.);
#128=ORIENTED_EDGE('',*,*,#173,.F.);
#129=ORIENTED_EDGE('',*,*,#168,.F.);
#130=ORIENTED_EDGE('',*,*,#171,.F.);
#131=ORIENTED_EDGE('',*,*,#163,.T.);
#132=ORIENTED_EDGE('',*,*,#175,.F.);
#133=ORIENTED_EDGE('',*,*,#149,.T.);
#134=ORIENTED_EDGE('',*,*,#174,.T.);
#135=ORIENTED_EDGE('',*,*,#140,.T.);
#136=ORIENTED_EDGE('',*,*,#143,.T.);
#137=ORIENTED_EDGE('',*,*,#169,.F.);
#138=ORIENTED_EDGE('',*,*,#175,.T.);
#139=ORIENTED_EDGE('',*,*,#146,.T.);
#140=EDGE_CURVE('',#176,#177,#208,.T.);
#141=EDGE_CURVE('',#176,#177,#209,.F.);
#142=EDGE_CURVE('',#178,#178,#40,.T.);
#143=EDGE_CURVE('',#177,#176,#210,.F.);
#144=EDGE_CURVE('',#177,#176,#211,.T.);
#145=EDGE_CURVE('',#179,#179,#41,.T.);
#146=EDGE_CURVE('',#180,#181,#212,.T.);
#147=EDGE_CURVE('',#181,#180,#213,.T.);
#148=EDGE_CURVE('',#182,#182,#42,.T.);
#149=EDGE_CURVE('',#181,#180,#214,.T.);
#150=EDGE_CURVE('',#183,#183,#43,.T.);
#151=EDGE_CURVE('',#184,#184,#44,.T.);
#152=EDGE_CURVE('',#185,#185,#45,.T.);
#153=EDGE_CURVE('',#186,#186,#46,.T.);
#154=EDGE_CURVE('',#187,#187,#47,.T.);
#155=EDGE_CURVE('',#188,#188,#48,.F.);
#156=EDGE_CURVE('',#189,#189,#49,.T.);
#157=EDGE_CURVE('',#190,#190,#50,.T.);
#158=EDGE_CURVE('',#191,#191,#51,.T.);
#159=EDGE_CURVE('',#192,#192,#52,.T.);
#160=EDGE_CURVE('',#193,#193,#53,.F.);
#161=EDGE_CURVE('',#194,#194,#54,.T.);
#162=EDGE_CURVE('',#195,#195,#55,.T.);
#163=EDGE_CURVE('',#196,#196,#56,.T.);
#164=EDGE_CURVE('',#197,#197,#57,.T.);
#165=EDGE_CURVE('',#198,#198,#58,.T.);
#166=EDGE_CURVE('',#199,#199,#59,.T.);
#167=EDGE_CURVE('',#200,#200,#60,.F.);
#168=EDGE_CURVE('',#201,#201,#61,.T.);
#169=EDGE_CURVE('',#202,#202,#62,.T.);
#170=EDGE_CURVE('',#203,#203,#63,.T.);
#171=EDGE_CURVE('',#204,#204,#64,.T.);
#172=EDGE_CURVE('',#205,#205,#65,.T.);
#173=EDGE_CURVE('',#206,#206,#66,.F.);
#174=EDGE_CURVE('',#207,#207,#67,.T.);
#175=EDGE_CURVE('',#181,#180,#215,.T.);
#176=VERTEX_POINT('',#610);
#177=VERTEX_POINT('',#611);
#178=VERTEX_POINT('',#614);
#179=VERTEX_POINT('',#619);
#180=VERTEX_POINT('',#622);
#181=VERTEX_POINT('',#623);
#182=VERTEX_POINT('',#626);
#183=VERTEX_POINT('',#630);
#184=VERTEX_POINT('',#633);
#185=VERTEX_POINT('',#636);
#186=VERTEX_POINT('',#638);
#187=VERTEX_POINT('',#641);
#188=VERTEX_POINT('',#643);
#189=VERTEX_POINT('',#646);
#190=VERTEX_POINT('',#652);
#191=VERTEX_POINT('',#654);
#192=VERTEX_POINT('',#657);
#193=VERTEX_POINT('',#659);
#194=VERTEX_POINT('',#662);
#195=VERTEX_POINT('',#668);
#196=VERTEX_POINT('',#670);
#197=VERTEX_POINT('',#673);
#198=VERTEX_POINT('',#675);
#199=VERTEX_POINT('',#678);
#200=VERTEX_POINT('',#680);
#201=VERTEX_POINT('',#686);
#202=VERTEX_POINT('',#688);
#203=VERTEX_POINT('',#691);
#204=VERTEX_POINT('',#693);
#205=VERTEX_POINT('',#696);
#206=VERTEX_POINT('',#698);
#207=VERTEX_POINT('',#701);
#208=ELLIPSE('',#402,58.6898628384834,41.5);
#209=ELLIPSE('',#403,58.6898628384834,41.5);
#210=ELLIPSE('',#406,58.6898628384834,41.5);
#211=ELLIPSE('',#407,58.6898628384834,41.5);
#212=ELLIPSE('',#410,62.9325035256027,44.5);
#213=ELLIPSE('',#411,62.9325035256027,44.5);
#214=ELLIPSE('',#414,62.9325035256027,44.5);
#215=ELLIPSE('',#466,62.9325035256027,44.5);
#216=EDGE_LOOP('',(#68,#69));
#217=EDGE_LOOP('',(#70));
#218=EDGE_LOOP('',(#71,#72));
#219=EDGE_LOOP('',(#73));
#220=EDGE_LOOP('',(#74,#75));
#221=EDGE_LOOP('',(#76));
#222=EDGE_LOOP('',(#77,#78));
#223=EDGE_LOOP('',(#79));
#224=EDGE_LOOP('',(#80));
#225=EDGE_LOOP('',(#81,#82));
#226=EDGE_LOOP('',(#83));
#227=EDGE_LOOP('',(#84));
#228=EDGE_LOOP('',(#85));
#229=EDGE_LOOP('',(#86));
#230=EDGE_LOOP('',(#87));
#231=EDGE_LOOP('',(#88));
#232=EDGE_LOOP('',(#89));
#233=EDGE_LOOP('',(#90));
#234=EDGE_LOOP('',(#91));
#235=EDGE_LOOP('',(#92));
#236=EDGE_LOOP('',(#93));
#237=EDGE_LOOP('',(#94));
#238=EDGE_LOOP('',(#95));
#239=EDGE_LOOP('',(#96));
#240=EDGE_LOOP('',(#97));
#241=EDGE_LOOP('',(#98));
#242=EDGE_LOOP('',(#99));
#243=EDGE_LOOP('',(#100));
#244=EDGE_LOOP('',(#101));
#245=EDGE_LOOP('',(#102));
#246=EDGE_LOOP('',(#103));
#247=EDGE_LOOP('',(#104));
#248=EDGE_LOOP('',(#105));
#249=EDGE_LOOP('',(#106));
#250=EDGE_LOOP('',(#107));
#251=EDGE_LOOP('',(#108));
#252=EDGE_LOOP('',(#109));
#253=EDGE_LOOP('',(#110));
#254=EDGE_LOOP('',(#111));
#255=EDGE_LOOP('',(#112));
#256=EDGE_LOOP('',(#113));
#257=EDGE_LOOP('',(#114));
#258=EDGE_LOOP('',(#115));
#259=EDGE_LOOP('',(#116));
#260=EDGE_LOOP('',(#117));
#261=EDGE_LOOP('',(#118));
#262=EDGE_LOOP('',(#119));
#263=EDGE_LOOP('',(#120));
#264=EDGE_LOOP('',(#121));
#265=EDGE_LOOP('',(#122));
#266=EDGE_LOOP('',(#123));
#267=EDGE_LOOP('',(#124));
#268=EDGE_LOOP('',(#125));
#269=EDGE_LOOP('',(#126));
#270=EDGE_LOOP('',(#127));
#271=EDGE_LOOP('',(#128));
#272=EDGE_LOOP('',(#129));
#273=EDGE_LOOP('',(#130));
#274=EDGE_LOOP('',(#131));
#275=EDGE_LOOP('',(#132,#133));
#276=EDGE_LOOP('',(#134));
#277=EDGE_LOOP('',(#135,#136));
#278=EDGE_LOOP('',(#137));
#279=EDGE_LOOP('',(#138,#139));
#280=FACE_BOUND('',#216,.T.);
#281=FACE_BOUND('',#217,.T.);
#282=FACE_BOUND('',#218,.T.);
#283=FACE_BOUND('',#219,.T.);
#284=FACE_BOUND('',#220,.T.);
#285=FACE_BOUND('',#221,.T.);
#286=FACE_BOUND('',#222,.T.);
#287=FACE_BOUND('',#223,.T.);
#288=FACE_BOUND('',#224,.T.);
#289=FACE_BOUND('',#225,.T.);
#290=FACE_BOUND('',#226,.T.);
#291=FACE_BOUND('',#227,.T.);
#292=FACE_BOUND('',#228,.T.);
#293=FACE_BOUND('',#229,.T.);
#294=FACE_BOUND('',#230,.T.);
#295=FACE_BOUND('',#231,.T.);
#296=FACE_BOUND('',#232,.T.);
#297=FACE_BOUND('',#233,.T.);
#298=FACE_BOUND('',#234,.T.);
#299=FACE_BOUND('',#235,.T.);
#300=FACE_BOUND('',#236,.T.);
#301=FACE_BOUND('',#237,.T.);
#302=FACE_BOUND('',#238,.T.);
#303=FACE_BOUND('',#239,.T.);
#304=FACE_BOUND('',#240,.T.);
#305=FACE_BOUND('',#241,.T.);
#306=FACE_BOUND('',#242,.T.);
#307=FACE_BOUND('',#243,.T.);
#308=FACE_BOUND('',#244,.T.);
#309=FACE_BOUND('',#245,.T.);
#310=FACE_BOUND('',#246,.T.);
#311=FACE_BOUND('',#247,.T.);
#312=FACE_BOUND('',#248,.T.);
#313=FACE_BOUND('',#249,.T.);
#314=FACE_BOUND('',#250,.T.);
#315=FACE_BOUND('',#251,.T.);
#316=FACE_BOUND('',#252,.T.);
#317=FACE_BOUND('',#253,.T.);
#318=FACE_BOUND('',#254,.T.);
#319=FACE_BOUND('',#255,.T.);
#320=FACE_BOUND('',#256,.T.);
#321=FACE_BOUND('',#257,.T.);
#322=FACE_BOUND('',#258,.T.);
#323=FACE_BOUND('',#259,.T.);
#324=FACE_BOUND('',#260,.T.);
#325=FACE_BOUND('',#261,.T.);
#326=FACE_BOUND('',#262,.T.);
#327=FACE_BOUND('',#263,.T.);
#328=FACE_BOUND('',#264,.T.);
#329=FACE_BOUND('',#265,.T.);
#330=FACE_BOUND('',#266,.T.);
#331=FACE_BOUND('',#267,.T.);
#332=FACE_BOUND('',#268,.T.);
#333=FACE_BOUND('',#269,.T.);
#334=FACE_BOUND('',#270,.T.);
#335=FACE_BOUND('',#271,.T.);
#336=FACE_BOUND('',#272,.T.);
#337=FACE_BOUND('',#273,.T.);
#338=FACE_BOUND('',#274,.T.);
#339=FACE_BOUND('',#275,.T.);
#340=FACE_BOUND('',#276,.T.);
#341=FACE_BOUND('',#277,.T.);
#342=FACE_BOUND('',#278,.T.);
#343=FACE_BOUND('',#279,.T.);
#344=CYLINDRICAL_SURFACE('',#401,41.5);
#345=CYLINDRICAL_SURFACE('',#405,41.5);
#346=CYLINDRICAL_SURFACE('',#409,44.5);
#347=CYLINDRICAL_SURFACE('',#413,44.5);
#348=CYLINDRICAL_SURFACE('',#416,41.5);
#349=CYLINDRICAL_SURFACE('',#421,57.);
#350=CYLINDRICAL_SURFACE('',#432,57.);
#351=CYLINDRICAL_SURFACE('',#450,57.);
#352=CYLINDRICAL_SURFACE('',#463,57.);
#353=CYLINDRICAL_SURFACE('',#465,44.5);
#354=CYLINDRICAL_SURFACE('',#467,41.5);
#355=CYLINDRICAL_SURFACE('',#468,44.5);
#356=ADVANCED_FACE('',(#280,#281),#344,.F.);
#357=ADVANCED_FACE('',(#282,#283),#345,.F.);
#358=ADVANCED_FACE('',(#284,#285),#346,.T.);
#359=ADVANCED_FACE('',(#286,#287),#347,.T.);
#360=ADVANCED_FACE('',(#288,#289),#348,.F.);
#361=ADVANCED_FACE('',(#290,#291),#32,.T.);
#362=ADVANCED_FACE('',(#292,#293),#349,.T.);
#363=ADVANCED_FACE('',(#294,#295),#28,.T.);
#364=ADVANCED_FACE('',(#296,#297),#33,.T.);
#365=ADVANCED_FACE('',(#298,#299),#20,.T.);
#366=ADVANCED_FACE('',(#300,#301),#21,.F.);
#367=ADVANCED_FACE('',(#302,#303),#34,.T.);
#368=ADVANCED_FACE('',(#304,#305),#350,.T.);
#369=ADVANCED_FACE('',(#306,#307),#29,.T.);
#370=ADVANCED_FACE('',(#308,#309),#35,.T.);
#371=ADVANCED_FACE('',(#310,#311),#22,.T.);
#372=ADVANCED_FACE('',(#312,#313),#23,.F.);
#373=ADVANCED_FACE('',(#314,#315),#24,.F.);
#374=ADVANCED_FACE('',(#316,#317),#25,.T.);
#375=ADVANCED_FACE('',(#318,#319),#36,.T.);
#376=ADVANCED_FACE('',(#320,#321),#30,.T.);
#377=ADVANCED_FACE('',(#322,#323),#351,.T.);
#378=ADVANCED_FACE('',(#324,#325),#37,.T.);
#379=ADVANCED_FACE('',(#326,#327),#26,.F.);
#380=ADVANCED_FACE('',(#328,#329),#27,.T.);
#381=ADVANCED_FACE('',(#330,#331),#38,.T.);
#382=ADVANCED_FACE('',(#332,#333),#31,.T.);
#383=ADVANCED_FACE('',(#334,#335),#352,.T.);
#384=ADVANCED_FACE('',(#336,#337),#39,.T.);
#385=ADVANCED_FACE('',(#338,#339),#353,.T.);
#386=ADVANCED_FACE('',(#340,#341),#354,.F.);
#387=ADVANCED_FACE('',(#342,#343),#355,.T.);
#388=CLOSED_SHELL('',(#356,#357,#358,#359,#360,#361,#362,#363,#364,#365,
#366,#367,#368,#369,#370,#371,#372,#373,#374,#375,#376,#377,#378,#379,#380,
#381,#382,#383,#384,#385,#386,#387));
#389=STYLED_ITEM('',(#390),#397);
#390=PRESENTATION_STYLE_ASSIGNMENT((#391));
#391=SURFACE_STYLE_USAGE(.BOTH.,#392);
#392=SURFACE_SIDE_STYLE('',(#393));
#393=SURFACE_STYLE_FILL_AREA(#394);
#394=FILL_AREA_STYLE('',(#395));
#395=FILL_AREA_STYLE_COLOUR('',#396);
#396=COLOUR_RGB('',0.506983280181885,0.531564235687256,0.550000011920929);
#397=MANIFOLD_SOLID_BREP('',#388);
#398=SHAPE_DEFINITION_REPRESENTATION(#714,#399);
#399=SHAPE_REPRESENTATION('33.080008.271.808',(#400),#709);
#400=AXIS2_PLACEMENT_3D('',#607,#469,#470);
#401=AXIS2_PLACEMENT_3D('',#608,#471,#472);
#402=AXIS2_PLACEMENT_3D('',#609,#473,#474);
#403=AXIS2_PLACEMENT_3D('',#612,#475,#476);
#404=AXIS2_PLACEMENT_3D('',#613,#477,#478);
#405=AXIS2_PLACEMENT_3D('',#615,#479,#480);
#406=AXIS2_PLACEMENT_3D('',#616,#481,#482);
#407=AXIS2_PLACEMENT_3D('',#617,#483,#484);
#408=AXIS2_PLACEMENT_3D('',#618,#485,#486);
#409=AXIS2_PLACEMENT_3D('',#620,#487,#488);
#410=AXIS2_PLACEMENT_3D('',#621,#489,#490);
#411=AXIS2_PLACEMENT_3D('',#624,#491,#492);
#412=AXIS2_PLACEMENT_3D('',#625,#493,#494);
#413=AXIS2_PLACEMENT_3D('',#627,#495,#496);
#414=AXIS2_PLACEMENT_3D('',#628,#497,#498);
#415=AXIS2_PLACEMENT_3D('',#629,#499,#500);
#416=AXIS2_PLACEMENT_3D('',#631,#501,#502);
#417=AXIS2_PLACEMENT_3D('',#632,#503,#504);
#418=AXIS2_PLACEMENT_3D('',#634,#505,#506);
#419=AXIS2_PLACEMENT_3D('',#635,#507,#508);
#420=AXIS2_PLACEMENT_3D('',#637,#509,#510);
#421=AXIS2_PLACEMENT_3D('',#639,#511,#512);
#422=AXIS2_PLACEMENT_3D('',#640,#513,#514);
#423=AXIS2_PLACEMENT_3D('',#642,#515,#516);
#424=AXIS2_PLACEMENT_3D('',#644,#517,#518);
#425=AXIS2_PLACEMENT_3D('',#645,#519,#520);
#426=AXIS2_PLACEMENT_3D('',#647,#521,#522);
#427=AXIS2_PLACEMENT_3D('',#648,#523,#524);
#428=AXIS2_PLACEMENT_3D('',#649,#525,#526);
#429=AXIS2_PLACEMENT_3D('',#650,#527,#528);
#430=AXIS2_PLACEMENT_3D('',#651,#529,#530);
#431=AXIS2_PLACEMENT_3D('',#653,#531,#532);
#432=AXIS2_PLACEMENT_3D('',#655,#533,#534);
#433=AXIS2_PLACEMENT_3D('',#656,#535,#536);
#434=AXIS2_PLACEMENT_3D('',#658,#537,#538);
#435=AXIS2_PLACEMENT_3D('',#660,#539,#540);
#436=AXIS2_PLACEMENT_3D('',#661,#541,#542);
#437=AXIS2_PLACEMENT_3D('',#663,#543,#544);
#438=AXIS2_PLACEMENT_3D('',#664,#545,#546);
#439=AXIS2_PLACEMENT_3D('',#665,#547,#548);
#440=AXIS2_PLACEMENT_3D('',#666,#549,#550);
#441=AXIS2_PLACEMENT_3D('',#667,#551,#552);
#442=AXIS2_PLACEMENT_3D('',#669,#553,#554);
#443=AXIS2_PLACEMENT_3D('',#671,#555,#556);
#444=AXIS2_PLACEMENT_3D('',#672,#557,#558);
#445=AXIS2_PLACEMENT_3D('',#674,#559,#560);
#446=AXIS2_PLACEMENT_3D('',#676,#561,#562);
#447=AXIS2_PLACEMENT_3D('',#677,#563,#564);
#448=AXIS2_PLACEMENT_3D('',#679,#565,#566);
#449=AXIS2_PLACEMENT_3D('',#681,#567,#568);
#450=AXIS2_PLACEMENT_3D('',#682,#569,#570);
#451=AXIS2_PLACEMENT_3D('',#683,#571,#572);
#452=AXIS2_PLACEMENT_3D('',#684,#573,#574);
#453=AXIS2_PLACEMENT_3D('',#685,#575,#576);
#454=AXIS2_PLACEMENT_3D('',#687,#577,#578);
#455=AXIS2_PLACEMENT_3D('',#689,#579,#580);
#456=AXIS2_PLACEMENT_3D('',#690,#581,#582);
#457=AXIS2_PLACEMENT_3D('',#692,#583,#584);
#458=AXIS2_PLACEMENT_3D('',#694,#585,#586);
#459=AXIS2_PLACEMENT_3D('',#695,#587,#588);
#460=AXIS2_PLACEMENT_3D('',#697,#589,#590);
#461=AXIS2_PLACEMENT_3D('',#699,#591,#592);
#462=AXIS2_PLACEMENT_3D('',#700,#593,#594);
#463=AXIS2_PLACEMENT_3D('',#702,#595,#596);
#464=AXIS2_PLACEMENT_3D('',#703,#597,#598);
#465=AXIS2_PLACEMENT_3D('',#704,#599,#600);
#466=AXIS2_PLACEMENT_3D('',#705,#601,#602);
#467=AXIS2_PLACEMENT_3D('',#706,#603,#604);
#468=AXIS2_PLACEMENT_3D('',#707,#605,#606);
#469=DIRECTION('',(0.,0.,1.));
#470=DIRECTION('',(1.,0.,0.));
#471=DIRECTION('',(-1.,0.,0.));
#472=DIRECTION('',(0.,0.,1.));
#473=DIRECTION('',(-0.707106781186547,0.,-0.707106781186547));
#474=DIRECTION('',(-0.707106781186547,0.,0.707106781186547));
#475=DIRECTION('',(-0.707106781186547,0.,0.707106781186547));
#476=DIRECTION('',(-0.707106781186547,0.,-0.707106781186547));
#477=DIRECTION('',(1.,0.,0.));
#478=DIRECTION('',(0.,0.,-1.));
#479=DIRECTION('',(-1.,0.,0.));
#480=DIRECTION('',(0.,0.,1.));
#481=DIRECTION('',(-0.707106781186547,0.,0.707106781186547));
#482=DIRECTION('',(-0.707106781186547,0.,-0.707106781186547));
#483=DIRECTION('',(-0.707106781186547,0.,-0.707106781186547));
#484=DIRECTION('',(-0.707106781186547,0.,0.707106781186547));
#485=DIRECTION('',(-1.,0.,0.));
#486=DIRECTION('',(0.,0.,1.));
#487=DIRECTION('',(-1.,0.,0.));
#488=DIRECTION('',(0.,0.,1.));
#489=DIRECTION('',(-0.707106781186548,0.,0.707106781186547));
#490=DIRECTION('',(-0.707106781186547,0.,-0.707106781186548));
#491=DIRECTION('',(-0.707106781186548,0.,-0.707106781186547));
#492=DIRECTION('',(-0.707106781186547,0.,0.707106781186548));
#493=DIRECTION('',(-1.,0.,0.));
#494=DIRECTION('',(0.,0.,1.));
#495=DIRECTION('',(2.22044604925031E-16,0.,1.));
#496=DIRECTION('',(-1.,0.,-2.22044604925031E-16));
#497=DIRECTION('',(-0.707106781186547,0.,0.707106781186548));
#498=DIRECTION('',(0.707106781186548,0.,0.707106781186547));
#499=DIRECTION('',(-2.22044604925031E-16,0.,-1.));
#500=DIRECTION('',(-1.,0.,-2.22044604925031E-16));
#501=DIRECTION('',(2.22044604925031E-16,0.,1.));
#502=DIRECTION('',(-1.,0.,-2.22044604925031E-16));
#503=DIRECTION('',(-2.22044604925031E-16,0.,-1.));
#504=DIRECTION('',(-1.,0.,-2.22044604925031E-16));
#505=DIRECTION('',(1.,0.,0.));
#506=DIRECTION('',(0.,0.,-1.));
#507=DIRECTION('',(1.,0.,0.));
#508=DIRECTION('',(0.,0.,-1.));
#509=DIRECTION('',(-1.,0.,0.));
#510=DIRECTION('',(0.,0.,1.));
#511=DIRECTION('',(-1.,0.,0.));
#512=DIRECTION('',(0.,0.,1.));
#513=DIRECTION('',(1.,0.,0.));
#514=DIRECTION('',(0.,0.,-1.));
#515=DIRECTION('',(1.,0.,0.));
#516=DIRECTION('',(0.,0.,-1.));
#517=DIRECTION('',(1.,0.,0.));
#518=DIRECTION('',(0.,0.,-1.));
#519=DIRECTION('',(1.,0.,0.));
#520=DIRECTION('',(0.,0.,-1.));
#521=DIRECTION('',(-1.,0.,0.));
#522=DIRECTION('',(0.,0.,1.));
#523=DIRECTION('',(1.,0.,0.));
#524=DIRECTION('',(0.,0.,-1.));
#525=DIRECTION('',(-1.,0.,0.));
#526=DIRECTION('',(0.,0.,1.));
#527=DIRECTION('',(-2.22044604925031E-16,0.,-1.));
#528=DIRECTION('',(1.,0.,2.22044604925031E-16));
#529=DIRECTION('',(2.22044604925031E-16,0.,1.));
#530=DIRECTION('',(1.,0.,2.22044604925031E-16));
#531=DIRECTION('',(-2.22044604925031E-16,0.,-1.));
#532=DIRECTION('',(-1.,0.,-2.22044604925031E-16));
#533=DIRECTION('',(2.22044604925031E-16,0.,1.));
#534=DIRECTION('',(-1.,0.,-2.22044604925031E-16));
#535=DIRECTION('',(2.22044604925031E-16,0.,1.));
#536=DIRECTION('',(1.,0.,2.22044604925031E-16));
#537=DIRECTION('',(2.22044604925031E-16,0.,1.));
#538=DIRECTION('',(1.,0.,2.22044604925031E-16));
#539=DIRECTION('',(-2.22044604925031E-16,0.,-1.));
#540=DIRECTION('',(1.,0.,2.22044604925031E-16));
#541=DIRECTION('',(2.22044604925031E-16,0.,1.));
#542=DIRECTION('',(1.,0.,2.22044604925031E-16));
#543=DIRECTION('',(2.22044604925031E-16,0.,1.));
#544=DIRECTION('',(-1.,0.,-2.22044604925031E-16));
#545=DIRECTION('',(-2.22044604925031E-16,0.,-1.));
#546=DIRECTION('',(1.,0.,2.22044604925031E-16));
#547=DIRECTION('',(2.22044604925031E-16,0.,1.));
#548=DIRECTION('',(-1.,0.,-2.22044604925031E-16));
#549=DIRECTION('',(1.,0.,0.));
#550=DIRECTION('',(0.,0.,-1.));
#551=DIRECTION('',(-1.,0.,0.));
#552=DIRECTION('',(0.,0.,1.));
#553=DIRECTION('',(1.,0.,0.));
#554=DIRECTION('',(0.,0.,-1.));
#555=DIRECTION('',(-1.,0.,0.));
#556=DIRECTION('',(0.,0.,1.));
#557=DIRECTION('',(-1.,0.,0.));
#558=DIRECTION('',(0.,0.,1.));
#559=DIRECTION('',(1.,0.,0.));
#560=DIRECTION('',(0.,0.,-1.));
#561=DIRECTION('',(1.,0.,0.));
#562=DIRECTION('',(0.,0.,-1.));
#563=DIRECTION('',(-1.,0.,0.));
#564=DIRECTION('',(0.,0.,1.));
#565=DIRECTION('',(-1.,0.,0.));
#566=DIRECTION('',(0.,0.,1.));
#567=DIRECTION('',(-1.,0.,0.));
#568=DIRECTION('',(0.,0.,1.));
#569=DIRECTION('',(1.,0.,0.));
#570=DIRECTION('',(0.,0.,-1.));
#571=DIRECTION('',(-1.,0.,0.));
#572=DIRECTION('',(0.,0.,1.));
#573=DIRECTION('',(2.22044604925031E-16,0.,-1.));
#574=DIRECTION('',(1.,0.,-2.22044604925031E-16));
#575=DIRECTION('',(2.22044604925031E-16,0.,-1.));
#576=DIRECTION('',(-1.,0.,2.22044604925031E-16));
#577=DIRECTION('',(-2.22044604925031E-16,0.,1.));
#578=DIRECTION('',(1.,0.,-2.22044604925031E-16));
#579=DIRECTION('',(-2.22044604925031E-16,0.,1.));
#580=DIRECTION('',(-1.,0.,2.22044604925031E-16));
#581=DIRECTION('',(2.22044604925031E-16,0.,-1.));
#582=DIRECTION('',(-1.,0.,2.22044604925031E-16));
#583=DIRECTION('',(-2.22044604925031E-16,0.,1.));
#584=DIRECTION('',(1.,0.,-2.22044604925031E-16));
#585=DIRECTION('',(2.22044604925031E-16,0.,-1.));
#586=DIRECTION('',(1.,0.,-2.22044604925031E-16));
#587=DIRECTION('',(2.22044604925031E-16,0.,-1.));
#588=DIRECTION('',(-1.,0.,2.22044604925031E-16));
#589=DIRECTION('',(2.22044604925031E-16,0.,-1.));
#590=DIRECTION('',(-1.,0.,2.22044604925031E-16));
#591=DIRECTION('',(-2.22044604925031E-16,0.,1.));
#592=DIRECTION('',(-1.,0.,2.22044604925031E-16));
#593=DIRECTION('',(-2.22044604925031E-16,0.,1.));
#594=DIRECTION('',(1.,0.,-2.22044604925031E-16));
#595=DIRECTION('',(2.22044604925031E-16,0.,-1.));
#596=DIRECTION('',(1.,0.,-2.22044604925031E-16));
#597=DIRECTION('',(-2.22044604925031E-16,0.,1.));
#598=DIRECTION('',(-1.,0.,2.22044604925031E-16));
#599=DIRECTION('',(1.,0.,0.));
#600=DIRECTION('',(0.,0.,-1.));
#601=DIRECTION('',(0.707106781186547,0.,0.707106781186547));
#602=DIRECTION('',(0.707106781186548,0.,-0.707106781186548));
#603=DIRECTION('',(2.22044604925031E-16,0.,-1.));
#604=DIRECTION('',(1.,0.,-2.22044604925031E-16));
#605=DIRECTION('',(2.22044604925031E-16,0.,-1.));
#606=DIRECTION('',(1.,0.,-2.22044604925031E-16));
#607=CARTESIAN_POINT('',(0.,0.,0.));
#608=CARTESIAN_POINT('',(0.,0.,0.));
#609=CARTESIAN_POINT('',(0.,0.,0.));
#610=CARTESIAN_POINT('',(0.,-41.5,0.));
#611=CARTESIAN_POINT('',(0.,41.5,0.));
#612=CARTESIAN_POINT('',(0.,0.,0.));
#613=CARTESIAN_POINT('',(-98.,0.,0.));
#614=CARTESIAN_POINT('',(-98.,0.,-41.5));
#615=CARTESIAN_POINT('',(0.,0.,0.));
#616=CARTESIAN_POINT('',(0.,0.,0.));
#617=CARTESIAN_POINT('',(0.,0.,0.));
#618=CARTESIAN_POINT('',(98.,0.,0.));
#619=CARTESIAN_POINT('',(98.,0.,41.5));
#620=CARTESIAN_POINT('',(0.,0.,0.));
#621=CARTESIAN_POINT('',(0.,0.,0.));
#622=CARTESIAN_POINT('',(0.,-44.5,0.));
#623=CARTESIAN_POINT('',(0.,44.5,0.));
#624=CARTESIAN_POINT('',(0.,0.,0.));
#625=CARTESIAN_POINT('',(83.3923414840118,0.,0.));
#626=CARTESIAN_POINT('',(83.3923414840118,0.,44.5));
#627=CARTESIAN_POINT('',(0.,0.,0.));
#628=CARTESIAN_POINT('',(0.,0.,0.));
#629=CARTESIAN_POINT('',(-1.85168195185907E-14,0.,-83.3923414840118));
#630=CARTESIAN_POINT('',(-44.5,0.,-83.3923414840118));
#631=CARTESIAN_POINT('',(0.,0.,0.));
#632=CARTESIAN_POINT('',(-2.17603712826531E-14,0.,-98.));
#633=CARTESIAN_POINT('',(-41.5,0.,-98.));
#634=CARTESIAN_POINT('',(85.4929640986409,0.,0.));
#635=CARTESIAN_POINT('',(86.2114193463695,0.,0.));
#636=CARTESIAN_POINT('',(86.2114193463695,0.,-46.473939570023));
#637=CARTESIAN_POINT('',(89.5636218618161,0.,0.));
#638=CARTESIAN_POINT('',(89.5636218618161,0.,55.6840402866513));
#639=CARTESIAN_POINT('',(0.,0.,0.));
#640=CARTESIAN_POINT('',(91.4430071033879,0.,0.));
#641=CARTESIAN_POINT('',(91.4430071033879,0.,-57.));
#642=CARTESIAN_POINT('',(97.5,0.,0.));
#643=CARTESIAN_POINT('',(97.5,0.,-57.));
#644=CARTESIAN_POINT('',(98.,0.,57.));
#645=CARTESIAN_POINT('',(98.,0.,0.));
#646=CARTESIAN_POINT('',(98.,0.,-56.5));
#647=CARTESIAN_POINT('',(97.5,0.,0.));
#648=CARTESIAN_POINT('',(91.4430071033879,0.,0.));
#649=CARTESIAN_POINT('',(83.3923414840118,0.,0.));
#650=CARTESIAN_POINT('',(-1.89832514371526E-14,0.,-85.4929640986409));
#651=CARTESIAN_POINT('',(-1.91427805487908E-14,0.,-86.2114193463695));
#652=CARTESIAN_POINT('',(46.473939570023,0.,-86.2114193463695));
#653=CARTESIAN_POINT('',(-1.98871190319618E-14,0.,-89.5636218618161));
#654=CARTESIAN_POINT('',(-55.6840402866514,0.,-89.5636218618161));
#655=CARTESIAN_POINT('',(0.,0.,0.));
#656=CARTESIAN_POINT('',(-2.03044263854286E-14,0.,-91.4430071033879));
#657=CARTESIAN_POINT('',(57.,0.,-91.4430071033879));
#658=CARTESIAN_POINT('',(-2.16493489801905E-14,0.,-97.5));
#659=CARTESIAN_POINT('',(57.,0.,-97.5));
#660=CARTESIAN_POINT('',(-57.,0.,-98.));
#661=CARTESIAN_POINT('',(-2.17603712826531E-14,0.,-98.));
#662=CARTESIAN_POINT('',(56.5,0.,-98.));
#663=CARTESIAN_POINT('',(-2.16493489801905E-14,0.,-97.5));
#664=CARTESIAN_POINT('',(-2.03044263854286E-14,0.,-91.4430071033879));
#665=CARTESIAN_POINT('',(-1.85168195185907E-14,0.,-83.3923414840118));
#666=CARTESIAN_POINT('',(-83.3923414840118,0.,0.));
#667=CARTESIAN_POINT('',(-86.2114193463695,0.,0.));
#668=CARTESIAN_POINT('',(-86.2114193463695,0.,46.473939570023));
#669=CARTESIAN_POINT('',(-83.3923414840118,0.,0.));
#670=CARTESIAN_POINT('',(-83.3923414840118,0.,-44.5));
#671=CARTESIAN_POINT('',(-91.4430071033879,0.,0.));
#672=CARTESIAN_POINT('',(-91.4430071033879,0.,0.));
#673=CARTESIAN_POINT('',(-91.4430071033879,0.,57.));
#674=CARTESIAN_POINT('',(-89.5636218618161,0.,0.));
#675=CARTESIAN_POINT('',(-89.5636218618161,0.,-55.6840402866513));
#676=CARTESIAN_POINT('',(-97.5,0.,0.));
#677=CARTESIAN_POINT('',(-98.,0.,0.));
#678=CARTESIAN_POINT('',(-98.,0.,56.5));
#679=CARTESIAN_POINT('',(-97.5,0.,0.));
#680=CARTESIAN_POINT('',(-97.5,0.,57.));
#681=CARTESIAN_POINT('',(-98.,0.,-57.));
#682=CARTESIAN_POINT('',(0.,0.,0.));
#683=CARTESIAN_POINT('',(-85.4929640986409,0.,0.));
#684=CARTESIAN_POINT('',(-1.85168195185907E-14,0.,83.3923414840118));
#685=CARTESIAN_POINT('',(-1.91427805487908E-14,0.,86.2114193463695));
#686=CARTESIAN_POINT('',(-46.473939570023,0.,86.2114193463695));
#687=CARTESIAN_POINT('',(-1.85168195185907E-14,0.,83.3923414840118));
#688=CARTESIAN_POINT('',(44.5,0.,83.3923414840118));
#689=CARTESIAN_POINT('',(-2.03044263854286E-14,0.,91.4430071033879));
#690=CARTESIAN_POINT('',(-2.03044263854286E-14,0.,91.4430071033879));
#691=CARTESIAN_POINT('',(-57.,0.,91.4430071033879));
#692=CARTESIAN_POINT('',(-1.98871190319618E-14,0.,89.5636218618161));
#693=CARTESIAN_POINT('',(55.6840402866513,0.,89.563621861816));
#694=CARTESIAN_POINT('',(-2.16493489801905E-14,0.,97.5));
#695=CARTESIAN_POINT('',(-2.17603712826531E-14,0.,98.));
#696=CARTESIAN_POINT('',(-56.5,0.,98.));
#697=CARTESIAN_POINT('',(-2.16493489801905E-14,0.,97.5));
#698=CARTESIAN_POINT('',(-57.,0.,97.5));
#699=CARTESIAN_POINT('',(57.,0.,98.));
#700=CARTESIAN_POINT('',(-2.17603712826531E-14,0.,98.));
#701=CARTESIAN_POINT('',(41.5,0.,98.));
#702=CARTESIAN_POINT('',(0.,0.,0.));
#703=CARTESIAN_POINT('',(-1.89832514371526E-14,0.,85.4929640986409));
#704=CARTESIAN_POINT('',(0.,0.,0.));
#705=CARTESIAN_POINT('',(0.,0.,0.));
#706=CARTESIAN_POINT('',(0.,0.,0.));
#707=CARTESIAN_POINT('',(0.,0.,0.));
#708=MECHANICAL_DESIGN_GEOMETRIC_PRESENTATION_REPRESENTATION('',(#389),
#709);
#709=(
GEOMETRIC_REPRESENTATION_CONTEXT(3)
GLOBAL_UNCERTAINTY_ASSIGNED_CONTEXT((#710))
GLOBAL_UNIT_ASSIGNED_CONTEXT((#713,#712,#711))
REPRESENTATION_CONTEXT('33.080008.271.808','TOP_LEVEL_ASSEMBLY_PART')
);
#710=UNCERTAINTY_MEASURE_WITH_UNIT(LENGTH_MEASURE(0.005),#713,
'DISTANCE_ACCURACY_VALUE','Maximum Tolerance applied to model');
#711=(
NAMED_UNIT(*)
SI_UNIT($,.STERADIAN.)
SOLID_ANGLE_UNIT()
);
#712=(
NAMED_UNIT(*)
PLANE_ANGLE_UNIT()
SI_UNIT($,.RADIAN.)
);
#713=(
LENGTH_UNIT()
NAMED_UNIT(*)
SI_UNIT(.MILLI.,.METRE.)
);
#714=PRODUCT_DEFINITION_SHAPE('','',#715);
#715=PRODUCT_DEFINITION('','',#717,#716);
#716=PRODUCT_DEFINITION_CONTEXT('',#723,'design');
#717=PRODUCT_DEFINITION_FORMATION_WITH_SPECIFIED_SOURCE('','',#719,
 .NOT_KNOWN.);
#718=PRODUCT_RELATED_PRODUCT_CATEGORY('','',(#719));
#719=PRODUCT('33.080008.271.808','33.080008.271.808',
'33.080008.271.808',(#721));
#720=PRODUCT_CATEGORY('','');
#721=PRODUCT_CONTEXT('',#723,'mechanical');
#722=APPLICATION_PROTOCOL_DEFINITION('international standard',
'automotive_design',2010,#723);
#723=APPLICATION_CONTEXT(
'core data for automotive mechanical design processes');
ENDSEC;
END-ISO-10303-21;
