ISO-10303-21;
HEADER;
/* Generated by software containing ST-Developer
 * from STEP Tools, Inc. (www.steptools.com) 
 */
/* OPTION: strings as raw bytes, not using required /X/ escapes */

FILE_DESCRIPTION(
/* description */ (''),
/* implementation_level */ '2;1');

FILE_NAME(
/* name */ '32.100003.210.310',
/* time_stamp */ '2018-10-08T13:30:19+02:00',
/* author */ ('Murat Coskun Bicak'),
/* organization */ ('Evac AG'),
/* preprocessor_version */ 'ST-DEVELOPER v16.7',
/* originating_system */ 'DEX',
/* authorisation */ $);

FILE_SCHEMA (('AUTOMOTIVE_DESIGN {1 0 10303 214 3 1 1}'));
ENDSEC;

DATA;
#10=PROPERTY_DEFINITION_REPRESENTATION(#14,#12);
#11=PROPERTY_DEFINITION_REPRESENTATION(#15,#13);
#12=REPRESENTATION('',(#16),#317);
#13=REPRESENTATION('',(#17),#317);
#14=PROPERTY_DEFINITION('pmi validation property','',#322);
#15=PROPERTY_DEFINITION('pmi validation property','',#322);
#16=VALUE_REPRESENTATION_ITEM('number of annotations',COUNT_MEASURE(0.));
#17=VALUE_REPRESENTATION_ITEM('number of views',COUNT_MEASURE(0.));
#18=SHAPE_REPRESENTATION_RELATIONSHIP('','',#185,#19);
#19=ADVANCED_BREP_SHAPE_REPRESENTATION('',(#183),#317);
#20=CONICAL_SURFACE('',#199,58.,0.785398163397448);
#21=CONICAL_SURFACE('',#205,62.4210100716628,1.22173047639603);
#22=CONICAL_SURFACE('',#211,66.75,0.785398163397448);
#23=CONICAL_SURFACE('',#212,51.25,0.785398163397445);
#24=CYLINDRICAL_SURFACE('',#198,54.);
#25=CYLINDRICAL_SURFACE('',#201,58.5);
#26=CYLINDRICAL_SURFACE('',#209,67.);
#27=CYLINDRICAL_SURFACE('',#214,51.);
#28=TOROIDAL_SURFACE('',#196,53.6,0.399999999999997);
#29=TOROIDAL_SURFACE('',#203,59.5,1.);
#30=TOROIDAL_SURFACE('',#207,65.,2.00000000000001);
#31=ORIENTED_EDGE('',*,*,#59,.F.);
#32=ORIENTED_EDGE('',*,*,#60,.T.);
#33=ORIENTED_EDGE('',*,*,#61,.T.);
#34=ORIENTED_EDGE('',*,*,#62,.F.);
#35=ORIENTED_EDGE('',*,*,#63,.T.);
#36=ORIENTED_EDGE('',*,*,#64,.F.);
#37=ORIENTED_EDGE('',*,*,#65,.F.);
#38=ORIENTED_EDGE('',*,*,#64,.T.);
#39=ORIENTED_EDGE('',*,*,#65,.T.);
#40=ORIENTED_EDGE('',*,*,#61,.F.);
#41=ORIENTED_EDGE('',*,*,#66,.F.);
#42=ORIENTED_EDGE('',*,*,#62,.T.);
#43=ORIENTED_EDGE('',*,*,#67,.F.);
#44=ORIENTED_EDGE('',*,*,#66,.T.);
#45=ORIENTED_EDGE('',*,*,#68,.F.);
#46=ORIENTED_EDGE('',*,*,#67,.T.);
#47=ORIENTED_EDGE('',*,*,#69,.F.);
#48=ORIENTED_EDGE('',*,*,#68,.T.);
#49=ORIENTED_EDGE('',*,*,#70,.F.);
#50=ORIENTED_EDGE('',*,*,#69,.T.);
#51=ORIENTED_EDGE('',*,*,#71,.F.);
#52=ORIENTED_EDGE('',*,*,#70,.T.);
#53=ORIENTED_EDGE('',*,*,#60,.F.);
#54=ORIENTED_EDGE('',*,*,#71,.T.);
#55=ORIENTED_EDGE('',*,*,#59,.T.);
#56=ORIENTED_EDGE('',*,*,#72,.F.);
#57=ORIENTED_EDGE('',*,*,#72,.T.);
#58=ORIENTED_EDGE('',*,*,#63,.F.);
#59=EDGE_CURVE('',#73,#73,#87,.T.);
#60=EDGE_CURVE('',#74,#74,#88,.T.);
#61=EDGE_CURVE('',#75,#75,#89,.T.);
#62=EDGE_CURVE('',#76,#76,#90,.T.);
#63=EDGE_CURVE('',#77,#77,#91,.T.);
#64=EDGE_CURVE('',#78,#78,#92,.T.);
#65=EDGE_CURVE('',#79,#79,#93,.T.);
#66=EDGE_CURVE('',#80,#80,#94,.T.);
#67=EDGE_CURVE('',#81,#81,#95,.T.);
#68=EDGE_CURVE('',#82,#82,#96,.T.);
#69=EDGE_CURVE('',#83,#83,#97,.T.);
#70=EDGE_CURVE('',#84,#84,#98,.T.);
#71=EDGE_CURVE('',#85,#85,#99,.T.);
#72=EDGE_CURVE('',#86,#86,#100,.T.);
#73=VERTEX_POINT('',#276);
#74=VERTEX_POINT('',#278);
#75=VERTEX_POINT('',#281);
#76=VERTEX_POINT('',#283);
#77=VERTEX_POINT('',#286);
#78=VERTEX_POINT('',#288);
#79=VERTEX_POINT('',#291);
#80=VERTEX_POINT('',#295);
#81=VERTEX_POINT('',#298);
#82=VERTEX_POINT('',#301);
#83=VERTEX_POINT('',#304);
#84=VERTEX_POINT('',#307);
#85=VERTEX_POINT('',#310);
#86=VERTEX_POINT('',#314);
#87=CIRCLE('',#188,51.5);
#88=CIRCLE('',#189,66.5);
#89=CIRCLE('',#191,54.);
#90=CIRCLE('',#192,57.5);
#91=CIRCLE('',#194,51.);
#92=CIRCLE('',#195,53.6);
#93=CIRCLE('',#197,54.);
#94=CIRCLE('',#200,58.5);
#95=CIRCLE('',#202,58.5);
#96=CIRCLE('',#204,59.1579798566743);
#97=CIRCLE('',#206,65.6840402866513);
#98=CIRCLE('',#208,67.);
#99=CIRCLE('',#210,67.);
#100=CIRCLE('',#213,51.);
#101=EDGE_LOOP('',(#31));
#102=EDGE_LOOP('',(#32));
#103=EDGE_LOOP('',(#33));
#104=EDGE_LOOP('',(#34));
#105=EDGE_LOOP('',(#35));
#106=EDGE_LOOP('',(#36));
#107=EDGE_LOOP('',(#37));
#108=EDGE_LOOP('',(#38));
#109=EDGE_LOOP('',(#39));
#110=EDGE_LOOP('',(#40));
#111=EDGE_LOOP('',(#41));
#112=EDGE_LOOP('',(#42));
#113=EDGE_LOOP('',(#43));
#114=EDGE_LOOP('',(#44));
#115=EDGE_LOOP('',(#45));
#116=EDGE_LOOP('',(#46));
#117=EDGE_LOOP('',(#47));
#118=EDGE_LOOP('',(#48));
#119=EDGE_LOOP('',(#49));
#120=EDGE_LOOP('',(#50));
#121=EDGE_LOOP('',(#51));
#122=EDGE_LOOP('',(#52));
#123=EDGE_LOOP('',(#53));
#124=EDGE_LOOP('',(#54));
#125=EDGE_LOOP('',(#55));
#126=EDGE_LOOP('',(#56));
#127=EDGE_LOOP('',(#57));
#128=EDGE_LOOP('',(#58));
#129=FACE_BOUND('',#101,.T.);
#130=FACE_BOUND('',#102,.T.);
#131=FACE_BOUND('',#103,.T.);
#132=FACE_BOUND('',#104,.T.);
#133=FACE_BOUND('',#105,.T.);
#134=FACE_BOUND('',#106,.T.);
#135=FACE_BOUND('',#107,.T.);
#136=FACE_BOUND('',#108,.T.);
#137=FACE_BOUND('',#109,.T.);
#138=FACE_BOUND('',#110,.T.);
#139=FACE_BOUND('',#111,.T.);
#140=FACE_BOUND('',#112,.T.);
#141=FACE_BOUND('',#113,.T.);
#142=FACE_BOUND('',#114,.T.);
#143=FACE_BOUND('',#115,.T.);
#144=FACE_BOUND('',#116,.T.);
#145=FACE_BOUND('',#117,.T.);
#146=FACE_BOUND('',#118,.T.);
#147=FACE_BOUND('',#119,.T.);
#148=FACE_BOUND('',#120,.T.);
#149=FACE_BOUND('',#121,.T.);
#150=FACE_BOUND('',#122,.T.);
#151=FACE_BOUND('',#123,.T.);
#152=FACE_BOUND('',#124,.T.);
#153=FACE_BOUND('',#125,.T.);
#154=FACE_BOUND('',#126,.T.);
#155=FACE_BOUND('',#127,.T.);
#156=FACE_BOUND('',#128,.T.);
#157=PLANE('',#187);
#158=PLANE('',#190);
#159=PLANE('',#193);
#160=ADVANCED_FACE('',(#129,#130),#157,.T.);
#161=ADVANCED_FACE('',(#131,#132),#158,.T.);
#162=ADVANCED_FACE('',(#133,#134),#159,.T.);
#163=ADVANCED_FACE('',(#135,#136),#28,.F.);
#164=ADVANCED_FACE('',(#137,#138),#24,.F.);
#165=ADVANCED_FACE('',(#139,#140),#20,.T.);
#166=ADVANCED_FACE('',(#141,#142),#25,.T.);
#167=ADVANCED_FACE('',(#143,#144),#29,.F.);
#168=ADVANCED_FACE('',(#145,#146),#21,.T.);
#169=ADVANCED_FACE('',(#147,#148),#30,.T.);
#170=ADVANCED_FACE('',(#149,#150),#26,.T.);
#171=ADVANCED_FACE('',(#151,#152),#22,.T.);
#172=ADVANCED_FACE('',(#153,#154),#23,.F.);
#173=ADVANCED_FACE('',(#155,#156),#27,.F.);
#174=CLOSED_SHELL('',(#160,#161,#162,#163,#164,#165,#166,#167,#168,#169,
#170,#171,#172,#173));
#175=STYLED_ITEM('',(#176),#183);
#176=PRESENTATION_STYLE_ASSIGNMENT((#177));
#177=SURFACE_STYLE_USAGE(.BOTH.,#178);
#178=SURFACE_SIDE_STYLE('',(#179));
#179=SURFACE_STYLE_FILL_AREA(#180);
#180=FILL_AREA_STYLE('',(#181));
#181=FILL_AREA_STYLE_COLOUR('',#182);
#182=COLOUR_RGB('',0.423529446125031,0.423529446125031,0.470588266849518);
#183=MANIFOLD_SOLID_BREP('',#174);
#184=SHAPE_DEFINITION_REPRESENTATION(#322,#185);
#185=SHAPE_REPRESENTATION('32.100003.210.310',(#186),#317);
#186=AXIS2_PLACEMENT_3D('',#273,#215,#216);
#187=AXIS2_PLACEMENT_3D('',#274,#217,#218);
#188=AXIS2_PLACEMENT_3D('',#275,#219,#220);
#189=AXIS2_PLACEMENT_3D('',#277,#221,#222);
#190=AXIS2_PLACEMENT_3D('',#279,#223,#224);
#191=AXIS2_PLACEMENT_3D('',#280,#225,#226);
#192=AXIS2_PLACEMENT_3D('',#282,#227,#228);
#193=AXIS2_PLACEMENT_3D('',#284,#229,#230);
#194=AXIS2_PLACEMENT_3D('',#285,#231,#232);
#195=AXIS2_PLACEMENT_3D('',#287,#233,#234);
#196=AXIS2_PLACEMENT_3D('',#289,#235,#236);
#197=AXIS2_PLACEMENT_3D('',#290,#237,#238);
#198=AXIS2_PLACEMENT_3D('',#292,#239,#240);
#199=AXIS2_PLACEMENT_3D('',#293,#241,#242);
#200=AXIS2_PLACEMENT_3D('',#294,#243,#244);
#201=AXIS2_PLACEMENT_3D('',#296,#245,#246);
#202=AXIS2_PLACEMENT_3D('',#297,#247,#248);
#203=AXIS2_PLACEMENT_3D('',#299,#249,#250);
#204=AXIS2_PLACEMENT_3D('',#300,#251,#252);
#205=AXIS2_PLACEMENT_3D('',#302,#253,#254);
#206=AXIS2_PLACEMENT_3D('',#303,#255,#256);
#207=AXIS2_PLACEMENT_3D('',#305,#257,#258);
#208=AXIS2_PLACEMENT_3D('',#306,#259,#260);
#209=AXIS2_PLACEMENT_3D('',#308,#261,#262);
#210=AXIS2_PLACEMENT_3D('',#309,#263,#264);
#211=AXIS2_PLACEMENT_3D('',#311,#265,#266);
#212=AXIS2_PLACEMENT_3D('',#312,#267,#268);
#213=AXIS2_PLACEMENT_3D('',#313,#269,#270);
#214=AXIS2_PLACEMENT_3D('',#315,#271,#272);
#215=DIRECTION('',(0.,0.,1.));
#216=DIRECTION('',(1.,0.,0.));
#217=DIRECTION('',(1.,0.,0.));
#218=DIRECTION('',(0.,0.,-1.));
#219=DIRECTION('',(1.,0.,0.));
#220=DIRECTION('',(0.,1.,0.));
#221=DIRECTION('',(1.,0.,0.));
#222=DIRECTION('',(0.,1.,0.));
#223=DIRECTION('',(-1.,0.,0.));
#224=DIRECTION('',(0.,0.,1.));
#225=DIRECTION('',(1.,0.,0.));
#226=DIRECTION('',(0.,1.,0.));
#227=DIRECTION('',(1.,0.,0.));
#228=DIRECTION('',(0.,1.,0.));
#229=DIRECTION('',(-1.,0.,0.));
#230=DIRECTION('',(0.,0.,1.));
#231=DIRECTION('',(1.,0.,0.));
#232=DIRECTION('',(0.,1.,0.));
#233=DIRECTION('',(1.,0.,0.));
#234=DIRECTION('',(0.,1.,0.));
#235=DIRECTION('',(1.,0.,0.));
#236=DIRECTION('',(0.,0.,-1.));
#237=DIRECTION('',(1.,0.,0.));
#238=DIRECTION('',(0.,1.,0.));
#239=DIRECTION('',(1.,0.,0.));
#240=DIRECTION('',(0.,1.,0.));
#241=DIRECTION('',(1.,0.,0.));
#242=DIRECTION('',(0.,1.,0.));
#243=DIRECTION('',(1.,0.,0.));
#244=DIRECTION('',(0.,1.,0.));
#245=DIRECTION('',(1.,0.,0.));
#246=DIRECTION('',(0.,1.,0.));
#247=DIRECTION('',(1.,0.,0.));
#248=DIRECTION('',(0.,1.,0.));
#249=DIRECTION('',(1.,0.,0.));
#250=DIRECTION('',(0.,0.,-1.));
#251=DIRECTION('',(1.,0.,0.));
#252=DIRECTION('',(0.,1.,0.));
#253=DIRECTION('',(1.,0.,0.));
#254=DIRECTION('',(0.,1.,0.));
#255=DIRECTION('',(1.,0.,0.));
#256=DIRECTION('',(0.,1.,0.));
#257=DIRECTION('',(1.,0.,0.));
#258=DIRECTION('',(0.,0.,-1.));
#259=DIRECTION('',(1.,0.,0.));
#260=DIRECTION('',(0.,1.,0.));
#261=DIRECTION('',(1.,0.,0.));
#262=DIRECTION('',(0.,1.,0.));
#263=DIRECTION('',(1.,0.,0.));
#264=DIRECTION('',(0.,1.,0.));
#265=DIRECTION('',(-1.,0.,0.));
#266=DIRECTION('',(0.,1.,0.));
#267=DIRECTION('',(1.,0.,0.));
#268=DIRECTION('',(0.,1.,0.));
#269=DIRECTION('',(1.,0.,0.));
#270=DIRECTION('',(0.,1.,0.));
#271=DIRECTION('',(1.,0.,0.));
#272=DIRECTION('',(0.,1.,0.));
#273=CARTESIAN_POINT('',(0.,0.,0.));
#274=CARTESIAN_POINT('',(10.,59.,0.));
#275=CARTESIAN_POINT('',(10.,0.,0.));
#276=CARTESIAN_POINT('',(10.,51.5,0.));
#277=CARTESIAN_POINT('',(9.99999999999999,0.,0.));
#278=CARTESIAN_POINT('',(9.99999999999999,66.5,0.));
#279=CARTESIAN_POINT('',(-10.,55.75,0.));
#280=CARTESIAN_POINT('',(-10.,0.,0.));
#281=CARTESIAN_POINT('',(-10.,54.,0.));
#282=CARTESIAN_POINT('',(-10.,0.,0.));
#283=CARTESIAN_POINT('',(-10.,57.5,0.));
#284=CARTESIAN_POINT('',(-5.,52.3,0.));
#285=CARTESIAN_POINT('',(-5.,0.,0.));
#286=CARTESIAN_POINT('',(-5.,51.,0.));
#287=CARTESIAN_POINT('',(-5.,0.,0.));
#288=CARTESIAN_POINT('',(-5.,53.6,0.));
#289=CARTESIAN_POINT('',(-5.39999999999999,7.10190385586085E-15,-2.08166817117217E-14));
#290=CARTESIAN_POINT('',(-5.4,0.,0.));
#291=CARTESIAN_POINT('',(-5.4,54.,0.));
#292=CARTESIAN_POINT('',(-7.7,0.,0.));
#293=CARTESIAN_POINT('',(-9.5,0.,0.));
#294=CARTESIAN_POINT('',(-9.,0.,0.));
#295=CARTESIAN_POINT('',(-9.,58.5,0.));
#296=CARTESIAN_POINT('',(-5.37697726473622,0.,0.));
#297=CARTESIAN_POINT('',(-1.75395452947243,0.,0.));
#298=CARTESIAN_POINT('',(-1.75395452947243,58.5,0.));
#299=CARTESIAN_POINT('',(-1.75395452947243,2.05816946636753E-14,-6.93889390390723E-15));
#300=CARTESIAN_POINT('',(-0.814261908686527,0.,0.));
#301=CARTESIAN_POINT('',(-0.814261908686527,59.1579798566743,0.));
#302=CARTESIAN_POINT('',(0.373383963080537,0.,0.));
#303=CARTESIAN_POINT('',(1.5610298348476,0.,0.));
#304=CARTESIAN_POINT('',(1.5610298348476,65.6840402866513,0.));
#305=CARTESIAN_POINT('',(3.44041507641941,0.,0.));
#306=CARTESIAN_POINT('',(3.44041507641941,0.,0.));
#307=CARTESIAN_POINT('',(3.44041507641941,67.,0.));
#308=CARTESIAN_POINT('',(6.4702075382097,0.,0.));
#309=CARTESIAN_POINT('',(9.49999999999999,0.,0.));
#310=CARTESIAN_POINT('',(9.49999999999999,67.,0.));
#311=CARTESIAN_POINT('',(9.74999999999999,0.,0.));
#312=CARTESIAN_POINT('',(9.75,0.,0.));
#313=CARTESIAN_POINT('',(9.49999999999999,0.,0.));
#314=CARTESIAN_POINT('',(9.49999999999999,51.,0.));
#315=CARTESIAN_POINT('',(2.25,0.,0.));
#316=MECHANICAL_DESIGN_GEOMETRIC_PRESENTATION_REPRESENTATION('',(#175),
#317);
#317=(
GEOMETRIC_REPRESENTATION_CONTEXT(3)
GLOBAL_UNCERTAINTY_ASSIGNED_CONTEXT((#318))
GLOBAL_UNIT_ASSIGNED_CONTEXT((#321,#320,#319))
REPRESENTATION_CONTEXT('32.100003.210.310','TOP_LEVEL_ASSEMBLY_PART')
);
#318=UNCERTAINTY_MEASURE_WITH_UNIT(LENGTH_MEASURE(0.005),#321,
'DISTANCE_ACCURACY_VALUE','Maximum Tolerance applied to model');
#319=(
NAMED_UNIT(*)
SI_UNIT($,.STERADIAN.)
SOLID_ANGLE_UNIT()
);
#320=(
NAMED_UNIT(*)
PLANE_ANGLE_UNIT()
SI_UNIT($,.RADIAN.)
);
#321=(
LENGTH_UNIT()
NAMED_UNIT(*)
SI_UNIT(.MILLI.,.METRE.)
);
#322=PRODUCT_DEFINITION_SHAPE('','',#323);
#323=PRODUCT_DEFINITION('','',#325,#324);
#324=PRODUCT_DEFINITION_CONTEXT('',#331,'design');
#325=PRODUCT_DEFINITION_FORMATION_WITH_SPECIFIED_SOURCE('','',#327,
 .NOT_KNOWN.);
#326=PRODUCT_RELATED_PRODUCT_CATEGORY('','',(#327));
#327=PRODUCT('32.100003.210.310','32.100003.210.310',
'32.100003.210.310',(#329));
#328=PRODUCT_CATEGORY('','');
#329=PRODUCT_CONTEXT('',#331,'mechanical');
#330=APPLICATION_PROTOCOL_DEFINITION('international standard',
'automotive_design',2010,#331);
#331=APPLICATION_CONTEXT(
'core data for automotive mechanical design processes');
ENDSEC;
END-ISO-10303-21;
