ISO-10303-21;
HEADER;
/* Generated by software containing ST-Developer
 * from STEP Tools, Inc. (www.steptools.com) 
 */
/* OPTION: strings as raw bytes, not using required /X/ escapes */

FILE_DESCRIPTION(
/* description */ (''),
/* implementation_level */ '2;1');

FILE_NAME(
/* name */ '32.063003.120.563',
/* time_stamp */ '2018-10-08T14:56:50+02:00',
/* author */ ('Murat Coskun Bicak'),
/* organization */ ('Evac AG'),
/* preprocessor_version */ 'ST-DEVELOPER v16.7',
/* originating_system */ 'DEX',
/* authorisation */ $);

FILE_SCHEMA (('AUTOMOTIVE_DESIGN {1 0 10303 214 3 1 1}'));
ENDSEC;

DATA;
#10=PROPERTY_DEFINITION_REPRESENTATION(#14,#12);
#11=PROPERTY_DEFINITION_REPRESENTATION(#15,#13);
#12=REPRESENTATION('',(#16),#183);
#13=REPRESENTATION('',(#17),#183);
#14=PROPERTY_DEFINITION('pmi validation property','',#188);
#15=PROPERTY_DEFINITION('pmi validation property','',#188);
#16=VALUE_REPRESENTATION_ITEM('number of annotations',COUNT_MEASURE(0.));
#17=VALUE_REPRESENTATION_ITEM('number of views',COUNT_MEASURE(0.));
#18=SHAPE_REPRESENTATION_RELATIONSHIP('','',#110,#19);
#19=ADVANCED_BREP_SHAPE_REPRESENTATION('',(#108),#183);
#20=CONICAL_SURFACE('',#124,43.5,1.30899693899575);
#21=CYLINDRICAL_SURFACE('',#114,32.);
#22=CYLINDRICAL_SURFACE('',#118,35.);
#23=CYLINDRICAL_SURFACE('',#122,43.5);
#24=ORIENTED_EDGE('',*,*,#38,.F.);
#25=ORIENTED_EDGE('',*,*,#39,.F.);
#26=ORIENTED_EDGE('',*,*,#38,.T.);
#27=ORIENTED_EDGE('',*,*,#40,.F.);
#28=ORIENTED_EDGE('',*,*,#39,.T.);
#29=ORIENTED_EDGE('',*,*,#41,.F.);
#30=ORIENTED_EDGE('',*,*,#40,.T.);
#31=ORIENTED_EDGE('',*,*,#42,.F.);
#32=ORIENTED_EDGE('',*,*,#41,.T.);
#33=ORIENTED_EDGE('',*,*,#43,.F.);
#34=ORIENTED_EDGE('',*,*,#42,.T.);
#35=ORIENTED_EDGE('',*,*,#44,.F.);
#36=ORIENTED_EDGE('',*,*,#43,.T.);
#37=ORIENTED_EDGE('',*,*,#44,.T.);
#38=EDGE_CURVE('',#45,#45,#52,.T.);
#39=EDGE_CURVE('',#46,#46,#53,.T.);
#40=EDGE_CURVE('',#47,#47,#54,.T.);
#41=EDGE_CURVE('',#48,#48,#55,.T.);
#42=EDGE_CURVE('',#49,#49,#56,.T.);
#43=EDGE_CURVE('',#50,#50,#57,.T.);
#44=EDGE_CURVE('',#51,#51,#58,.T.);
#45=VERTEX_POINT('',#162);
#46=VERTEX_POINT('',#165);
#47=VERTEX_POINT('',#168);
#48=VERTEX_POINT('',#171);
#49=VERTEX_POINT('',#174);
#50=VERTEX_POINT('',#177);
#51=VERTEX_POINT('',#180);
#52=CIRCLE('',#113,32.);
#53=CIRCLE('',#115,32.);
#54=CIRCLE('',#117,35.);
#55=CIRCLE('',#119,35.);
#56=CIRCLE('',#121,43.5);
#57=CIRCLE('',#123,43.5);
#58=CIRCLE('',#125,36.0491443823044);
#59=EDGE_LOOP('',(#24));
#60=EDGE_LOOP('',(#25));
#61=EDGE_LOOP('',(#26));
#62=EDGE_LOOP('',(#27));
#63=EDGE_LOOP('',(#28));
#64=EDGE_LOOP('',(#29));
#65=EDGE_LOOP('',(#30));
#66=EDGE_LOOP('',(#31));
#67=EDGE_LOOP('',(#32));
#68=EDGE_LOOP('',(#33));
#69=EDGE_LOOP('',(#34));
#70=EDGE_LOOP('',(#35));
#71=EDGE_LOOP('',(#36));
#72=EDGE_LOOP('',(#37));
#73=FACE_BOUND('',#59,.T.);
#74=FACE_BOUND('',#60,.T.);
#75=FACE_BOUND('',#61,.T.);
#76=FACE_BOUND('',#62,.T.);
#77=FACE_BOUND('',#63,.T.);
#78=FACE_BOUND('',#64,.T.);
#79=FACE_BOUND('',#65,.T.);
#80=FACE_BOUND('',#66,.T.);
#81=FACE_BOUND('',#67,.T.);
#82=FACE_BOUND('',#68,.T.);
#83=FACE_BOUND('',#69,.T.);
#84=FACE_BOUND('',#70,.T.);
#85=FACE_BOUND('',#71,.T.);
#86=FACE_BOUND('',#72,.T.);
#87=PLANE('',#112);
#88=PLANE('',#116);
#89=PLANE('',#120);
#90=PLANE('',#126);
#91=ADVANCED_FACE('',(#73),#87,.F.);
#92=ADVANCED_FACE('',(#74,#75),#21,.T.);
#93=ADVANCED_FACE('',(#76,#77),#88,.F.);
#94=ADVANCED_FACE('',(#78,#79),#22,.F.);
#95=ADVANCED_FACE('',(#80,#81),#89,.F.);
#96=ADVANCED_FACE('',(#82,#83),#23,.T.);
#97=ADVANCED_FACE('',(#84,#85),#20,.T.);
#98=ADVANCED_FACE('',(#86),#90,.F.);
#99=CLOSED_SHELL('',(#91,#92,#93,#94,#95,#96,#97,#98));
#100=STYLED_ITEM('',(#101),#108);
#101=PRESENTATION_STYLE_ASSIGNMENT((#102));
#102=SURFACE_STYLE_USAGE(.BOTH.,#103);
#103=SURFACE_SIDE_STYLE('',(#104));
#104=SURFACE_STYLE_FILL_AREA(#105);
#105=FILL_AREA_STYLE('',(#106));
#106=FILL_AREA_STYLE_COLOUR('',#107);
#107=COLOUR_RGB('',0.506983280181885,0.531564235687256,0.550000011920929);
#108=MANIFOLD_SOLID_BREP('',#99);
#109=SHAPE_DEFINITION_REPRESENTATION(#188,#110);
#110=SHAPE_REPRESENTATION('32.063003.120.563',(#111),#183);
#111=AXIS2_PLACEMENT_3D('',#159,#127,#128);
#112=AXIS2_PLACEMENT_3D('',#160,#129,#130);
#113=AXIS2_PLACEMENT_3D('',#161,#131,#132);
#114=AXIS2_PLACEMENT_3D('',#163,#133,#134);
#115=AXIS2_PLACEMENT_3D('',#164,#135,#136);
#116=AXIS2_PLACEMENT_3D('',#166,#137,#138);
#117=AXIS2_PLACEMENT_3D('',#167,#139,#140);
#118=AXIS2_PLACEMENT_3D('',#169,#141,#142);
#119=AXIS2_PLACEMENT_3D('',#170,#143,#144);
#120=AXIS2_PLACEMENT_3D('',#172,#145,#146);
#121=AXIS2_PLACEMENT_3D('',#173,#147,#148);
#122=AXIS2_PLACEMENT_3D('',#175,#149,#150);
#123=AXIS2_PLACEMENT_3D('',#176,#151,#152);
#124=AXIS2_PLACEMENT_3D('',#178,#153,#154);
#125=AXIS2_PLACEMENT_3D('',#179,#155,#156);
#126=AXIS2_PLACEMENT_3D('',#181,#157,#158);
#127=DIRECTION('',(0.,0.,1.));
#128=DIRECTION('',(1.,0.,0.));
#129=DIRECTION('',(-1.,0.,0.));
#130=DIRECTION('',(0.,0.,1.));
#131=DIRECTION('',(-1.,0.,0.));
#132=DIRECTION('',(0.,0.,1.));
#133=DIRECTION('',(-1.,0.,0.));
#134=DIRECTION('',(0.,0.,1.));
#135=DIRECTION('',(-1.,0.,0.));
#136=DIRECTION('',(0.,0.,1.));
#137=DIRECTION('',(-1.,0.,0.));
#138=DIRECTION('',(0.,0.,1.));
#139=DIRECTION('',(-1.,0.,0.));
#140=DIRECTION('',(0.,0.,1.));
#141=DIRECTION('',(-1.,0.,0.));
#142=DIRECTION('',(0.,0.,1.));
#143=DIRECTION('',(-1.,0.,0.));
#144=DIRECTION('',(0.,0.,1.));
#145=DIRECTION('',(-1.,0.,0.));
#146=DIRECTION('',(0.,0.,1.));
#147=DIRECTION('',(-1.,0.,0.));
#148=DIRECTION('',(0.,0.,1.));
#149=DIRECTION('',(-1.,0.,0.));
#150=DIRECTION('',(0.,0.,1.));
#151=DIRECTION('',(-1.,0.,0.));
#152=DIRECTION('',(0.,0.,1.));
#153=DIRECTION('',(1.,0.,0.));
#154=DIRECTION('',(0.,0.,-1.));
#155=DIRECTION('',(-1.,0.,0.));
#156=DIRECTION('',(0.,0.,1.));
#157=DIRECTION('',(1.,0.,0.));
#158=DIRECTION('',(0.,0.,-1.));
#159=CARTESIAN_POINT('',(0.,0.,0.));
#160=CARTESIAN_POINT('',(2.5,0.,0.));
#161=CARTESIAN_POINT('',(2.5,0.,0.));
#162=CARTESIAN_POINT('',(2.5,0.,32.));
#163=CARTESIAN_POINT('',(-2.5,0.,0.));
#164=CARTESIAN_POINT('',(0.,0.,0.));
#165=CARTESIAN_POINT('',(0.,0.,32.));
#166=CARTESIAN_POINT('',(0.,0.,32.));
#167=CARTESIAN_POINT('',(0.,0.,0.));
#168=CARTESIAN_POINT('',(0.,0.,35.));
#169=CARTESIAN_POINT('',(-2.5,0.,0.));
#170=CARTESIAN_POINT('',(2.5,0.,0.));
#171=CARTESIAN_POINT('',(2.5,0.,35.));
#172=CARTESIAN_POINT('',(2.5,0.,35.));
#173=CARTESIAN_POINT('',(2.5,0.,0.));
#174=CARTESIAN_POINT('',(2.5,0.,43.5));
#175=CARTESIAN_POINT('',(-2.5,0.,0.));
#176=CARTESIAN_POINT('',(-0.503549254317589,0.,0.));
#177=CARTESIAN_POINT('',(-0.503549254317589,0.,43.5));
#178=CARTESIAN_POINT('',(-0.503549254317589,0.,0.));
#179=CARTESIAN_POINT('',(-2.5,0.,0.));
#180=CARTESIAN_POINT('',(-2.5,0.,36.0491443823044));
#181=CARTESIAN_POINT('',(-2.5,0.,36.0491443823044));
#182=MECHANICAL_DESIGN_GEOMETRIC_PRESENTATION_REPRESENTATION('',(#100),
#183);
#183=(
GEOMETRIC_REPRESENTATION_CONTEXT(3)
GLOBAL_UNCERTAINTY_ASSIGNED_CONTEXT((#184))
GLOBAL_UNIT_ASSIGNED_CONTEXT((#187,#186,#185))
REPRESENTATION_CONTEXT('32.063003.120.563','TOP_LEVEL_ASSEMBLY_PART')
);
#184=UNCERTAINTY_MEASURE_WITH_UNIT(LENGTH_MEASURE(0.005),#187,
'DISTANCE_ACCURACY_VALUE','Maximum Tolerance applied to model');
#185=(
NAMED_UNIT(*)
SI_UNIT($,.STERADIAN.)
SOLID_ANGLE_UNIT()
);
#186=(
NAMED_UNIT(*)
PLANE_ANGLE_UNIT()
SI_UNIT($,.RADIAN.)
);
#187=(
LENGTH_UNIT()
NAMED_UNIT(*)
SI_UNIT(.MILLI.,.METRE.)
);
#188=PRODUCT_DEFINITION_SHAPE('','',#189);
#189=PRODUCT_DEFINITION('','',#191,#190);
#190=PRODUCT_DEFINITION_CONTEXT('',#197,'design');
#191=PRODUCT_DEFINITION_FORMATION_WITH_SPECIFIED_SOURCE('','',#193,
 .NOT_KNOWN.);
#192=PRODUCT_RELATED_PRODUCT_CATEGORY('','',(#193));
#193=PRODUCT('32.063003.120.563','32.063003.120.563',
'32.063003.120.563',(#195));
#194=PRODUCT_CATEGORY('','');
#195=PRODUCT_CONTEXT('',#197,'mechanical');
#196=APPLICATION_PROTOCOL_DEFINITION('international standard',
'automotive_design',2010,#197);
#197=APPLICATION_CONTEXT(
'core data for automotive mechanical design processes');
ENDSEC;
END-ISO-10303-21;
